Cifra Club

Uno x Uno

Manuel Carrasco

Cifrado: Principal (guitarra y guitarra eléctrica)
tono: C#m
Intro: Dbm  Abm  A  E  F#m  Ab  Dbm 

E|--------0-----------------------------------------|
B|--2--4-----4--2---0---2--0-------------------2--1-|
G|----------------------------1------1--2--1--------|
D|--------------------------------4-----------------|
A|--------------------------------------------------|
E|--------------------------------------------------|

Dbm              Db 
Antes de que me quede sin corazón
A                            Am 
Voy a decirte todo lo que me pasa.
E              Dbm                  Abm 
Te quiero a cada instante lo sabe Dios
A                              F#m   Ab 
Aunque quererte tanto también me mata.

Dbm                B            A 
Es el viento en tu pelo tu libertad
Ab 
La que me muerde
Dbm             B               A    B 
Es el deseo constante de amarte más.

A 
¿Qué quieres que le haga?
          B 
Si cuando me clavas la mirada
          Abm 
Se vuelve loco mi pensamiento
         Dbm          B 
Nunca lo digo pero lo siento.

A 
En cada momentito
          E 
Que tú me tienes y estás conmigo
            Abm 
Lluvia de estrellas que se disparan
       Dbm                B 
Dilo bajito que me hace falta.
A 
Dilo bajito que me hace falta.

E             Abm          Db 
Me pierde tu manera de sonreír
F#m                          Am     C 
En tu sonrisa cabe la luz del mundo.
E             Dbm          Abm 
Niña traviesa quisiera repetir
F#m                           Ab 
Los besos que nos faltan Uno x uno.

Dbm            B             A 
Y es esta duda negra del corazón
  Abm 
Que a veces tengo.
Dbm          B           A   B 
Si tu la coloreas será mejor.

A 
¿Qué quieres que le haga?
          B 
Si cuando me clavas la mirada
          Abm 
Se vuelve loco mi pensamiento
         Dbm          B 
Nunca lo digo pero lo siento.

A 
En cada momentito
          E 
Que tú me tienes y estás conmigo
            Abm 
Lluvia de estrellas que se disparan
       Dbm                B 
Dilo bajito que me hace falta.

E|--------0-0-0----------0---2-2-2---0-2-0-----------------------|
B|-2--4---------4-2----4---------------------4-2---4-4-4---2--0-2-|
G|----------------------------------------------------------------|
D|----------------------------------------------------------------| Rebm
A|----------------------------------------------------------------|
E|----------------------------------------------------------------|

A                Abm           F#m 
Cierra la puerta y abre tu corazón
B              Dbm     B   A   B 
Que te lo cuento.             Ooooh


Estribillo

      A 
Es buscarte sin saber
     B 
Y sentir escalofríos
     Abm 
En el alma y en la piel
       Dbm 
Si te dijera lo que no se ve.
      A 
Es quererte sin tener
      B 
Es decirte buenos días
       Abm 
Con el beso que inventé
           Dbm 
Cuando te pienso sonrío después.
00:00 / 00:00
Otros videos de esta canción
Repetir
Otros videos de esta canción
Composición de Manuel Carrasco
738 exhibiciones
    • ½ Tono
    • Am
    • Bbm
    • Bm
    • Cm
    • C#m
    • Dm
    • Ebm
    • Em
    • Fm
    • F#m
    • Gm
    • G#m
  • Agregar a la lista
    00:00 / 00:00
    OK