Cifra Club

Flor Pálida

Marc Anthony

Cifrado: Versão 4 (guitarra y guitarra eléctrica)
tono: D
INTRO:
E|-15-15-15-15-17-19-15-17----|-17-17-17-17-19-20-17-19-15-|
B|-------------------------15-|----------------------------|
G|----------------------------|----------------------------|
(BIS)


ESTROF  I:

Hallé una flor, un día en el camino,
Que apareció marchita y deshojada.
E|--------------------------------|----------------------------|
B|------------------------0-------|------------------0-1---0---|
G|--------------------0-2---0-2---|--------------2-2-----2---0-|
D|------------------0-----------0-|-5-s-7-7-7-7----------------|
A|-5-s-10-10-10-10----------------|----------------------------|
E|--------------------------------|----------------------------|

Ya casi pálida, ahogada en un suspiro,
Me la llevé a mi jardín para cuidarla.
E|-------0-----------0-----|----------------------------|
B|-0-1-3---3-1-1-0-1---3---|-----0-1-0-0----------------|
G|-----------------------0-|-0-2---------0-2--0-0-----2-|
D|-------------------------|----------------------2-4---|
A|-------------------------|----------------------------|
E|-------------------------|----------------------------|


ESTROF  II:

Aquella flor de pétalos dormidos,
A la que cuido hoy con todo el alma,
E|------------------------|------------------------|
B|----------------0-------|--------------0-1---0---|
G|-------0----0-2---0-2---|-2-2-2-2-2--2-----2---0-|
D|-0-2-4----0-----------0-|------------------------|
A|------------------------|------------------------|
E|------------------------|------------------------|

Recuperó el color que había perdido
Porque encontró un cuidador que la regara.
E|-------0----------0-----|-------------------------|
B|-0-1-3---3-1--0-1---3---|-----0-1-0---------0-0---|
G|----------------------0-|-0-2-------2-2---0-----0-|
D|------------------------|---------------4---------|
A|------------------------|-------------------------|
E|------------------------|-------------------------|


CORO:

Le fui poniendo un poquito de amor,
A  fui AbriganC  en E  alma,
E|---0-2-3v-3-3-2-0---2v-|--3-3-3v-3-3-3-s-2---|
B|-0----------------3----|-0-----------------3-|
G|-----------------------|---------------------|
D|-----------------------|---------------------|
A|-----------------------|---------------------|
E|-----------------------|---------------------|

Y en el invierno le daba calor
Para que no se dañara.
E|-------0---------------|-------0-3v-2-0---|
B|-1-1-3---3-1-0----0-3v-|-2-2-3----------3-|
G|----------------0------|------------------|
D|-----------------------|------------------|
A|-----------------------|------------------|
E|-----------------------|------------------|

De aquella flor hoy el dueño soy yo
Y he prometido cuidarla
E|---0-2-3v-3-3-2v-0---2v-|--3-3-3v-3-3-3-s-2----|
B|-0-----------------3----|-0-----------------3v-|
G|------------------------|----------------------|
D|------------------------|----------------------|
A|------------------------|----------------------|
E|------------------------|----------------------|


Para que nadie le robe el color,
Para que nunca se vaya.
E|-------0---------------|------------------|
B|-1-1-3----3-1-0---0-3v-|-----0-1-0-0-0----|
G|----------------0------|-0-2-----------0--|
D|-----------------------|------------------|
A|-----------------------|------------------|
E|-----------------------|------------------|


INTERMEDIO: INTRO.

ESTROF  III:

De aquella flor surgieron tantas cosas,
Nació el amor que un día se había perdido,

E|--------------------------------|----------------------------|
B|------------------------0-------|------------------0-1---0---|
G|--------------------0-2---0-2---|--------------2-2-----2---0-|
D|------------------0-----------0-|-5-s-7-7-7-7----------------|
A|-5-s-10-10-10-10----------------|----------------------------|
E|--------------------------------|----------------------------|


Y con la luz del sol se fue la sombra,
Y con la sombra la distancia y el olvido.
E|-0-0-0-0----------0-----|-----------------------------|
B|---------3-1--0-1---3---|-----0-1-0-0-----------0-0---|
G|----------------------0-|-0-2---------2-2-----------0-|
D|------------------------|-----------------4-s-5-------|
A|------------------------|-----------------------------|
E|------------------------|-----------------------------|


-CORO CON PEQUEÑA MODIFICACIÓN-

AA RGUE SALSERO CON A  BG UIENTE MELODÍA CARACTERÍSTICA (4 VECES):

E|-10----10----10----10----|
B|----12----13----10----12-|
G|-------------------------|
00:00 / 00:00
Otros videos de esta canción
Repetir
Otros videos de esta canción
Composición de Polo Montañez
5 exhibiciones
    • ½ Tono
    • A
    • Bb
    • B
    • C
    • Db
    • D
    • Eb
    • E
    • F
    • F#
    • G
    • Ab
  • Agregar a la lista
    00:00 / 00:00
    OK