Cifra Club

No me ames

Marc Anthony

Cifrado: Principal (guitarra y guitarra eléctrica)
tono: D
INTRO:
e||-0------------0------------0------------0----------------------|
B||-1-3--1-0-1-3---3--1-0-1-3---3--1-0-1-3---3----0---------------|
G||-0-------------------------------------------------------------|
D||-2-------------------------------------------------------------|
A||-3-------------------------------------------------------------|
E||-3-------------------------------------------------------------|


e||-----------------/------------/-----------------/----------------|
B||-----0-1-0-------/-----0-1----/---0-1-3-1-------/---0-1-3-0------|
G||-0-2-------0-----/-0-2-----2--/-2---------2-----/-2--------------|
   Dime por qué lloras de felicidad, y por qué te ahogas,
   por la soledad

e||----------3-1-----/---------1-0-----/---------1-0---------0------|
B||---0-1------------/-----0-----------/-----1-------3-1-0-1---3----|
G||-2-----2----------/-0-2---0---------/-2-2---2--------------------|
   Di por qué me tomas fuerte así mis manos
   y tus pensamientos te van llevando

e||----------------/-------------/--------------/-------------------|
B||-----0-1-0------/-----0-1-----/---0-1-3-1----/---0-1-3-0---------|
G||-0-2-------0----/-0-2-----2---/-2---------2--/-2-----------------|
   Yo te quiero tanto,y por qué será,loco testarudo,no lo dudes más

e||---------3-1-0-1---0---------------/---------1-0---------0-------|
B||---0-1-----------3---3-1-----------/-----1-------3-1-0-1---3-----|
G||-2-----2---------------------------/-2-2---2---------------------|
   Aunque en el futuro haya un muro enorme, yo no tengo miedo,
   quiero enamorarme

e||---0--------/---0--------0-1-0-1-3-1-0---------/-----------------|
B||-3---3-1----/-3---3-1--3-----------------------/-----------------|
G||------------/----------------------------------/-----------------|
   No me ames    porque pienses que parezco diferente
   Tú no piensas que es lo justo ver pasar el tiempo juntos

e||---0-1-0---0-1-0-1-3-4-3-4-3-0-----------/-----0-1-0----------/--|
B||-3-------3---------------------1---------/-1-3-------3-1------/--|
G||-----------------------------------------/--------------------/--|
   No me ames que comprendo la mentira que sería, si tu amor no merezco

e||-1-0-------/---0-1-0-1-------------------------------------------|
B||-----3-1---/-3---------3-1-----3---------------------------------|
G||-----------/-----------------------------------------------------|
   No me ames, mas quédate otro día

e||-----------/---0-------------/---0-1-0-1-0--------/-1-3-1-0------|
B||-3-1-0-1---/-3---3-1-0-1-----/-3------------------/---------3-1--|
   No me ames, porque estoy perdido, porque cambie el mundo,
   porque es el destino

e||---------------/---0-------------/---0-1-0-1-0----/-1-3-1-0---------|
B||-0-1-3-1-0-1---/-3---3-1-0-1-----/-3--------------/---------3-1-0-1-|
   Porque, no se puede, somos un espejo,
   y tú así serías lo que yo de mi reflejo

e||-3-1-0-1-/-3-5-3-1-0-1-/-3-5-6-5-6-5-/-6-8-6-5-3-1-0-1-----------|
B||-----------------------------------------------------------------|
   No me ames para estar muriendo,
   dentro de una guerra llena de arrepentimientos

e||-3-1-0-1-/-3-5-3-1-0-1-/-3-5-6-5-6-5-/-6-8-6-5-3-1-0-1--------------|
B||-------------------------------------------------------3-1-0-1------|
   No me ames para estar en tierra, quiero alzar el vuelo,
   con tu gran amor por el azúl del cielo

e||-1--1-1--0----------------------------------------------------------|
B||------------3--5----------------------------------------------------|
   Nooo  me ames

Yei amigos, la otra parte de la canción es igual.
Podeis utilizar esto con una segunda guitarra para la versión balada ok.
Queda muy bonito.
Un saludo
Composición de Aleandro Baldi, Giancarlo Bigazzi, Marco Falagiani
28 vistas
    • ½ Tono
    • A
    • Bb
    • B
    • C
    • Db
    • D
    • Eb
    • E
    • F
    • F#
    • G
    • Ab
  • Agregar a la lista

    0 comentarios

    Ver todos los comentarios

    ¿Lograste tocar?

    0 Tocaron 0 Aún no

    ¡Graba un video tocando No me ames y envíanoslo!

    00:00 / 00:00
    Outros vídeos desta música
    Repetir Calidad Automático
    Outros vídeos desta música
    00:00 / 00:00
    Automático
    OK