Cifra Club

Dame tus ojos

Marcela Gandara

Cifrado: Principal (guitarra y guitarra eléctrica)
tono: D
E|-----------------------------------------------|
B|-------7-----6-----4---------------------------|
G|-----------------------------------------------|
D—6h7h8---8h6---6h4-----------------------------|
A|-----------------------------------------------|
E|-----------------------------------------------|

(00:29)

E|-----------------------------------------------|
B|-------7-----6-----4-----2---------------------|
G|-----------------------------------------------|
D—6h7h8---8h6---6h4---4h3-----------------------|
A|-----------------------------------------------|
E|-----------------------------------------------|

(00:44)

E|-----------------------------------------------|
B|-------4-6--9-7-6-7-----------------------------|
G|-----------------------------------------------|
D—4-5-6-----------------------------------------|
A|-----------------------------------------------|
E|-----------------------------------------------|


(01:41)

E|-----------------------------------------------|
B|-------7-----6-----4-----2---------------------|
G|-----------------------------------------------|
D—6h7h8---8h6---6h4---4h3-----------------------|
A|-----------------------------------------------|
E|-----------------------------------------------|

(03:13)

E|-----------------------------------------------|
B|-------7-----6-----4---------------------------|
G|-----------------------------------------------|
D—6h7h8---8h6---6h4-----------------------------|
A|-----------------------------------------------|
E|-----------------------------------------------|
00:00 / 00:00
Otros videos de esta canción
Repetir
Otros videos de esta canción
Composición de Maxwell Sacerdote
52 vistas
    • ½ Tono
    • A
    • Bb
    • B
    • C
    • Db
    • D
    • Eb
    • E
    • F
    • F#
    • G
    • Ab
  • Agregar a la lista

    0 comentarios

    Ver todos los comentarios
    00:00 / 00:00
    OK