Cifra Club

Saudade

Marcelo Camelo

Cifrado: Principal (guitarra y guitarra eléctrica)
tono: A
E|--5--4--2-------------------|--5--4--2-------------4-----|
B|--2--2--2--2----5-----5-----|--2--2--2-------5-----5-----|
G|--2-------------6-----6-----|--2--------2----6-----6-----|
D|----------------6--4--6-----|----------------6-----6-----|
A|----------------4-----------|----------------4--4--------|
E|--2-------------------------|--2-------------------------|
                                                            
E|----------------------------|-----------2---5--4---------|
B|--7--5----------2-----------|--------4---------5------5--|
G|--7----7--------2-----2-----|--2/4-------------4---4-----|
D|--7-------7/2---2--2-----2--|----------------------------|
A|--5-------------0-----------|----------------------------|
E|----------------------------|------------------0---------|

E|--9-----9------9-----7--5/2-|--3---------4----4/5/7------|
B|---------------------7------|--3----5----3----3/4/6------|
G|------------------6--6------|--2----4----4----4/5/7------|
D|---------------7-----7------|--0----5--------------------|
A|--9--8--7--6----------------|-------4--------------------|
E|----------------------------|------------0------------0--|

E|--9--10--9------7--5----5--7|----------------------------|
B|--8------8------9--7--7-----|--6-------5-----5--7--2-----|
G|--9---------9------7--------|--5----5--6--6--------2----2|
D|----------------------------|--5-------6-----------4--4--|
A|-------------------5--------|--5-------4-----------------|
E|--0-------------------------|-----5----------------2-----|

E|---------------------2-5/11-|--11-12-11-12-11-12-11-12---|
B|------------------4---------|--14----14----14----14------|
G|------------2--4------------|----------------------------|
D|------1--4------------------|----------------------------|
A|3--2------------------------|----------------------------|
E|----------------------------|--0-------------------------|

E|--11-12--11--10--9--8--7--6-|
B|--14------------------------|
G|----------------------------|
D|----------------------------|
A|----------------------------|
E|--0-------------------------|

                 Ai ai                        vai ver

E|--5--4---2-------------------|--5--4--2-------------------|
B|------------2/5---5----------|--2--2--2--2----5-----5-----|
G|------------------6----------|--2-------------6-----6-----|
D|---------------------6-------|----------------6--4--6-----|
A|------------------4----------|----------------4-----------|
E|-----------------------4--2--|--2-------------------------|

                 é só                         você

E|----------------------------|-----------2---5--4---------|
B|--7--5----------2-----------|--------4---------5------5--|
G|--7----7--------2-----2-----|--2/4-------------4---4-----|
D|--7-------7/2---2--2-----2--|----------------------------|
A|--5-------------0-----------|----------------------------|
E|----------------------------|------------------0---------|

                    ai ai                        vai ver

E|--5--4--2-------------------|--5--4--2-------------------|
B|--2--2--2--2----5-----5-----|--2--2--2--2----5-----5-----|
G|--2-------------6-----6-----|--2-------------6-----6-----|
D|----------------6--4--6-----|----------------6--4--6-----|
A|----------------4-----------|----------------4-----------|
E|--2-------------------------|--2-------------------------|

                 é só                               você

E|----------------------------|-----------2---5--4---------|
B|--7--5----------2-----------|--------4---------5------5--|
G|--7----7--------2-----2-----|--2/4-------------4---4-----|
D|--7-------7/2---2--2-----2--|----------------------------|
A|--5-------------0-----------|----------------------------|
E|----------------------------|------------------0---------|


querer...            distante imaginar                      caberia

E|--9-----9------9-----7--5/2-|--3---------4----4/5/7------|
B|---------------------7------|--3----5----3----3/4/6------|
G|------------------6--6------|--2----4----4----4/5/7------|
D|---------------7-----7------|--0----5--------------------|
A|--9--8--7--6----------------|-------4--------------------|
E|----------------------------|------------0------------0--|

                   a quem      dizer    amor           eu vivo

E|--9--10--9------7--5----5--7|----------------------------|
B|--8------8------9--7--7-----|--6-------5-----5--7--2-----|
G|--9---------9------7--------|--5----5--6--6--------2----2|
D|----------------------------|--5-------6-----------4--4--|
A|-------------------5--------|--5-------4-----------------|
E|--0-------------------------|-----5----------------2-----|

    tão sozinho de

E|---------------------2-5/11-|--11-12-11-12-11-12-11-12---|
B|------------------4---------|--14----14----14----14------|
G|------------2--4------------|----------------------------|
D|------1--4------------------|----------------------------|
A|3--2------------------------|----------------------------|
E|----------------------------|--0-------------------------|

          saudade

E|--11-12--11--10--9--8--7--6-|
B|--14------------------------|
G|----------------------------|
D|----------------------------|
A|----------------------------|
E|--0-------------------------|
00:00 / 00:00
Otros videos de esta canción
Repetir
Otros videos de esta canción
Composición de Marcelo Camelo
Colaboración y revisión:
  • Lucas Gutemberg
  • igor mr
  • Cleberson Gomes
391 vistas
    • ½ Tono
    • A
    • Bb
    • B
    • C
    • Db
    • D
    • Eb
    • E
    • F
    • F#
    • G
    • Ab
  • Agregar a la lista

    0 comentarios

    Ver todos los comentarios

    ¿Lograste tocar?

    10 Tocaron 0 Aún no

    ¡Graba un video tocando Saudade y envíanoslo!

    00:00 / 00:00
    OK