Cifra Club

Cuando te acuerdes de mi

Marco Antonio Solís

Cifrado: Principal (guitarra y guitarra eléctrica)
tono: G
    G                                      Am
E|--10---10--10--10-----8--7---10--10--10--10---8--7--10---8---8----|
B|--12---12--12--12----10--9---12--12--12--12--10--9--12--10--10----|
G|------------------------------------------------------------------|
D|------------------------------------------------------------------|
A|------------------------------------------------------------------|
E|------------------------------------------------------------------|

    C                                                        G
E|--12---12--12--12----10---8---12--12--12--12--10---8--12--10--10--|
B|--13---13--13--13----12--10---13--13--13--13--12--10--13--12--12--|
G|------------------------------------------------------------------|
D|------------------------------------------------------------------|
A|------------------------------------------------------------------|
E|------------------------------------------------------------------|

  G                C             G                         C
 cuando .......mi hechale......viento.......y guardame.....que me hable....
E|------8-7------8-7------8-7------8-7------8-7------8-7------8-7-------7-8-|
B|-3/5-------3/5------3/5------3/5------3/5------3/5------3/5------3/5-----|
G|-------------------------------------------------------------------------|
D|-------------------------------------------------------------------------|
A|-------------------------------------------------------------------------|
E|-------------------------------------------------------------------------|

               D
  ...un poco de ti.......tarareame la cancion ke mas te vibre en el...
E|-----5---10-------5---10------5---10------5---10------5---10-----|
B|-5/7---7------5/7---7-----5/7---7-----5/7---7-----5/7---7--------|
G|-----------------------------------------------------------------|
D|-----------------------------------------------------------------|
A|-----------------------------------------------------------------|
E|-----------------------------------------------------------------|

       G   C                   D    C                  D
  ...pecho y dale un trago derecho de recuerdo al corazon...
E|-----8-7-------8-7-------5---10-------8-7------5---10------5---10--|
B|-3/5-------3/5-------5/7---7------3/5------5/7---7-----5/7---7-----|
G|-------------------------------------------------------------------|
D|-------------------------------------------------------------------|
A|-------------------------------------------------------------------|
E|-------------------------------------------------------------------|


G                       C                     G
Cuando te acuerdes de mi que Dios bendiga tu mente
                          C                D
y te ayude en el presente del pasado ke te di.
                                           G
Yo te recuerdo tambien de una forma tan bonita
C                  D   C                    G  G/B
que pornada se me kita el vivir pensando en ti.

Am  D     Am                  D     G
Siempre, siempre vienes a mi pensamiento
Em                            D  Am
cuando el tiempo es demasiado lento
C               G
pienso en ti, solo en ti.
Am  D   Am                D          G
Eres el refugio donde me gusta esconderme
Em                              D Am
el lugar donde mi sentimiento duerme
C             G
junto a ti, junto a ti.

ACOMPAÑA CON ACORDES:


   Am D  Am  D  G  Em  D  Am  C  G

  'siempre, seimpre...pensamiento.....demasiedo lento...
E|-7/8----8---8---8----8-9-10-----12-10-12-10-12-10-12-13----|
B|------10--12--12--12--------12-----------------------------|
G|-----------------------------------------------------------|
D|-----------------------------------------------------------|
A|-----------------------------------------------------------|
E|-----------------------------------------------------------|

   pienso en ti..solo en ti'
E|--14-----14-12-12---12-10-10------|
B|-----13---------------------------|
G|----------------------------------|
D|----------------------------------|
A|----------------------------------|
E|----------------------------------|

 Am D  Am  D  G  Em  D  Am  C  G


Am  D     Am                  D     G
Siempre, siempre vienes a mi pensamiento
Em                            D  Am
cuando el tiempo es demasiado lento
C               G
pienso en ti, solo en ti.
Am  D   Am                D          G
Eres el refugio donde me gusta esconderme
Em                              D Am
el lugar donde mi sentimiento duerme
C             G
junto a ti, junto a ti.
Composición de Marco Antonio Solís
29 vistas
    • ½ Tono
    • A
    • Bb
    • B
    • C
    • Db
    • D
    • Eb
    • E
    • F
    • F#
    • G
    • Ab
  • Agregar a la lista

    0 comentarios

    Ver todos los comentarios

    ¿Lograste tocar?

    0 Tocaron 0 Aún no

    ¡Graba un video tocando Cuando te acuerdes de mi y envíanoslo!

    00:00 / 00:00
    Outros vídeos desta música
    Repetir Calidad Automático
    Outros vídeos desta música
    00:00 / 00:00
    Automático
    OK