Cifra Club

Donde estará mi primavera

Marco Antonio Solís

Cifrado: Principal (guitarra y guitarra eléctrica)
tono: Bb
E|--------------10-8--8-8-9/10-8p10h8--|
B|--------10---------------------------|
G|--10-12----12------------------------|
D|-------------------------------------|
A|-------------------------------------|
E|-------------------------------------|

E|--------------10-8p10h8-------------------------------|
B|--------10---------------11-10-11--11p13h11p13h11-10--|
G|--10-12----12-----------------------------------------|
D|------------------------------------------------------|
A|------------------------------------------------------|
E|------------------------------------------------------|

E|--------------10-8--5/8-8-10-8p10h8--|
B|--------10---------------------------|
G|--10-12----12------------------------|
D|-------------------------------------|
A|-------------------------------------|
E|-------------------------------------|

E|--------------10-8------------8-10-11-11/13--|
B|--------10---------10-11-10------------------|
G|--10-12----12--------------------------------|
D|---------------------------------------------|
A|---------------------------------------------|
E|---------------------------------------------|
Composición de Marco Antonio Solís
134 vistas
    • ½ Tono
    • A
    • Bb
    • B
    • C
    • Db
    • D
    • Eb
    • E
    • F
    • F#
    • G
    • Ab
  • Agregar a la lista

    0 comentarios

    Ver todos los comentarios

    ¿Lograste tocar?

    0 Tocaron 0 Aún no

    ¡Graba un video tocando Donde estará mi primavera y envíanoslo!

    00:00 / 00:00
    Otros videos de esta canción
    Repetir Calidad Automático
    Otros videos de esta canción
    00:00 / 00:00
    Automático
    OK