Cifra Club

Mi Mayor Necesidad

Marco Antonio Solís

Cifrado: Principal (guitarra y guitarra eléctrica)
tono: C
INTRO: G, Dm, G, Dm, G, Dm, G, C C7, F, C C7, G, C C7


A|-------------------------------------------------------------------
D|-------------------------------------------------------------------
G|----------------------------------------------10-10-10-------------
B|---------------------------------------8-8h10----------------------
E|-8-8h10-8-7-8-10-8-7-8-10-8-7-8-10-8-7------------------8-10-8-7-8-

                                     me gusta estar aquí... en este


A|---------------------------------------------------------------------
D|---------------------------------------------------------------------
G|---------------------------------------------------------------------
B|-------------------------------------10h11-11-11-11-11-11-11-11-11-11
E|-10-8-7-8-10-8-7-8-10-12-13-12-12-12---------------------------------

Ambiente con esta gente escuchar esas risas, mas llegando a la madrugada

                                donde todo empieza a convertirse en nada



A|------------------------------------------------------------------------
D|------------------------------------------------------------------------
G|------------------------------------------------------------------------
B|-10-8-10-11-10-8-10-11-10-8-10-11-13-15-13-11-10-10-10-13-13-13---------
E|----------------------------------------------------------------13-13-13

Y crece ese deseo ................. que no se aparta nunca de mi


A|-----------------------------------------------------------------------
D|-----------------------------------------------------------------------
G|-----------------------------------------------------------------------
B|----------------------------------------------13-----------------------
E|-15-14-13-12-13-14-17-17-15-15-13-13-12-12-10-----------------------

C         G7   Dm     G7
Lo que quisiera  sinceramente  es
   C                      A7
Tenerte  entre mis brasos
    Dm                 G7
Acurrucarte entre mi  pecho
               C
Y decirte  la verdad                                   


         G7  Dm         G7
Estoy cansado   de  engañarme 
                        C  A7
Pensando que te he olvidado
          Dm                  G7
Mas ya no puedo te hasconvertido                       
                   C   G7
En mi mayor necesidad


       C
Estoy sintiendo entre estas  lagrimas
                G7
Que ahora van cayendo
         Dm               G7
No cabe duda te  estoy queriendo
                   C  G7
Como nunca quise asi

          C
Volver a verte  es la obsesión
                              G7
Que ahora me impide hasta la muerte
                Dm              G7
Si he de encontrarte sera en mi vida 
                  C
Ese dia el mas feliz 
                       C
Estoy sintiendo entre estas  lagrimas...
                        C
Volver a verte  es la obsesión...

INTRO PUENTE G, Dm, G, Dm, G, Dm, G, C C7, F, C C7, G, C C7
solo:

A|-------------------------------------------------------------------
D|-------------------------------------------------------------------
G|----------------------------------------------10-10-10-------------
B|---------------------------------------8-8h10----------------------
E|-8-8h10-8-7-8-10-8-7-8-10-8-7-8-10-8-7------------------8-10-8-7-8-

A|---------------------------------------------------------------------
D|---------------------------------------------------------------------
G|---------------------------------------------------------------------
B|-------------------------------------10h11-11-11-11-11-11-11-11-11-11
E|-10-8-7-8-10-8-7-8-10-12-13-12-12-12---------------------------------

A|------------------------------------------------------------------------
D|------------------------------------------------------------------------
G|------------------------------------------------------------------------
B|-10-8-10-11-10-8-10-11-10-8-10-11-13-15-13-11-10-10-10-13-13-13---------
E|----------------------------------------------------------------13-13-13

A|-----------------------------------------------------------------------
D|-----------------------------------------------------------------------
G|-----------------------------------------------------------------------
B|----------------------------------------------13-----------------------
E|-15-14-13-12-13-14-17-17-15-15-13-13-12-12-10-----------------------

coro=

final
     G      C     Am C
Ese dia el mas feliz
G|----------------------------
B|----------13-12-10-12----13-
E|-13-12-10-------------10----
Composición de Chepe Solis
Colaboración y revisión:
  • Leonardo Trajano
338 vistas
    • ½ Tono
    • A
    • Bb
    • B
    • C
    • Db
    • D
    • Eb
    • E
    • F
    • F#
    • G
    • Ab
  • Agregar a la lista

    0 comentarios

    Ver todos los comentarios

    ¿Lograste tocar?

    0 Tocaron 0 Aún no

    ¡Graba un video tocando Mi Mayor Necesidad y envíanoslo!

    00:00 / 00:00
    Outros vídeos desta música
    Repetir Calidad Automático
    Outros vídeos desta música
    00:00 / 00:00
    Automático
    OK