Cifra Club

Si No Te Hubieras Ido

Marco Antonio Solís

Cifrado: Principal (guitarra y guitarra eléctrica)
Selo Cifra Club: esta cifra foi revisada para atender aos critérios oficiais da nossa Equipe de Qualidade.
tono: Am
[Intro]

                  Am                  F
E|--------------------|------------------|
B|-------------1------|--0/1--0----------|
G|------0---2-----2---|---------2--0-----|
D|---2----------------|---------------2--|
A|--------------------|------------------|
E|--------------------|------------------|

                  Am                  F
E|--------------------|------------------|
B|-------------1------|--0/1--0----------|
G|-------0---2-----2--|---------2--0-----|
D|--0/2---------------|---------------2--|
A|--------------------|------------------|
E|--------------------|------------------|

           Am
E|-----------------|
B|-----------------|
G|------0---2------|
D|--0/2------------|
A|-----------------|
E|-----------------|

Am                  F         G         C       E7
Te extraño mas que nunca y n0 se que hacer
Am                 F         G   C
Despierto y te recuerdo al amanecer
G                              C       E7
Espera otro dia por vivir sin ti
              Am
El espejo no miente
              F      G
Me veo tan diferente
                C      E7
Me haces falta tu

Am             F            G    C        E7
La gente pasa y pasa siempre tan igual
Am               F        G       C
El ritmo de la vida me parece mal
G                                 C      E7
Era tan diferente cuando estabas tu
Am             F               G     C     E7
Si que era diferente cuando estabas tu

G                                   C
No hay nada mas dificil que vivir sin ti
G                                   C
Sufriendo en la espera de verte llegar
G                                  C
El frio de mi cuerpo pregunta por ti
   E7          Am
Y no se donde estas
 F                   G          C
Si no te hubieras ido seria tan feliz

Am             F            G    C        E7
La gente pasa y pasa siempre tan igual
Am               F        G       C
El ritmo de la vida me parece mal
G                                 C      E7
Era tan diferente cuando estabas tu
Am             F               G     C     E7
Si que era diferente cuando estabas tu

G                                   C
No hay nada mas dificil que vivir sin ti
G                                   C
Sufriendo en la espera de verte llegar
G                                  C
El frio de mi cuerpo pregunta por ti
   E7          Am
Y no se donde estas
 F                   G          C
Si no te hubieras ido seria tan feliz

G                                   C
No hay nada mas dificil que vivir sin ti
G                                   C
Sufriendo en la espera de verte llegar
G                                  C
El frio de mi cuerpo pregunta por ti
   E7          Am
Y no se donde estas
 F                   G          C
Si no te hubieras ido seria tan feliz

                  Am                  F
E|--------------------|------------------|
B|-------------1------|--0/1--0----------|
G|------0---2-----2---|---------2--0-----|
D|---2----------------|---------------2--|
A|--------------------|------------------|
E|--------------------|------------------|

                  Am                  F
E|--------------------|------------------|
B|-------------1------|--0/1--0----------|
G|-------0---2-----2--|---------2--0-----|
D|--0/2---------------|---------------2--|
A|--------------------|------------------|
E|--------------------|------------------|

           Am
E|-----------------|
B|-----------------|
G|------0---2------|
D|--0/2------------|
A|-----------------|
E|-----------------|
 
 F                   G          C
Si no te hubieras ido seria tan feliz

                  Am                  F
E|--------------------|------------------|
B|-------------1------|--0/1--0----------|
G|------0---2-----2---|---------2--0-----|
D|---2----------------|---------------2--|
A|--------------------|------------------|
E|--------------------|------------------|

                  Am                  F
E|--------------------|------------------|
B|-------------1------|--0/1--0----------|
G|-------0---2-----2--|---------2--0-----|
D|--0/2---------------|---------------2--|
A|--------------------|------------------|
E|--------------------|------------------|

           Am
E|-----------------|
B|-----------------|
G|------0---2------|
D|--0/2------------|
A|-----------------|
E|-----------------|
Otros videos de esta canción
    42.420 exhibiciones
      • ½ Tono
      • Am
      • Bbm
      • Bm
      • Cm
      • C#m
      • Dm
      • Ebm
      • Em
      • Fm
      • F#m
      • Gm
      • G#m
    • Agregar a la lista

    Afinación de cifrado

    Afinador online

      OK