Cifra Club

Aprenda

Nada Es Imposible

Marco Barrientos

Tablatura: Principal (guitarra)
tono: Bb
Intro:

E|--------------------------|
B|-------11-------11---11---|
G|-10-10----10-10---10------| 2x
D|--------------------------|
A|--------------------------|
E|--------------------------|

E|--------------------------|
B|-------10-------10---10---|
G|-10-10----10-10---10------| 2x
D|--------------------------| 
A|--------------------------|
E|--------------------------|
                   
Coro:

Bb5                  F5
Por Ti, todo lo puedo
              G5                   Eb5
Todo es posible, y la fuerza Tú me das

Nada es imposible
Bb5                      F5
Por Ti, los ojos se abren
                G5                Eb5
Cadenas son rotas, y yo viviré por Fe
        
Nada es imposible

Intro:

E|--------------------------------|
B|--16-16-15-16-15---18-16-15-----|
G|----------------15--------------|
D|--------------------------------|
A|--------------------------------|
E|--------------------------------|
 
E|----------------------------------|
B|--15-----------15--------16-15----|
G|-----17-17-17-----17-15--------15-|
D|----------------------------------|
A|----------------------------------|
E|----------------------------------|

Verso:

 Bb5       C5           Eb5
   No viviré por lo que veo
G5         F5            Eb5
   No viviré por lo que siento
Bb5        F5        Eb5        (D5-Eb5)
   Yo sé que aquí conmigo estas
Bb5        F5        C5     Eb5 Ebadd9
Yo sé que Tu Eres Grande Dios


 Bb5     Fadd11 (no5)/Bb     Eb5    D5-Eb5
E|----------------------------------------|
B|-----11------10-------------------------|
G|-----10------10------------8-------7-8--|
D|-----8-------8-------------8-------5-6--|
A|---------------------------6------------|
E|----------------------------------------|

Coro:

Bb5                  F5
Por Ti, todo lo puedo
              G5                   Eb5
Todo es posible, y la fuerza Tú me das

Nada es imposible
Bb5                      F5
Por Ti, los ojos se abren
                G5                Eb5
Cadenas son rotas, y yo viviré por Fe
        
Nada es imposible

Intro:

E|--------------------------------|
B|--16-16-15-16-15---18-16-15-----|
G|----------------15--------------|
D|--------------------------------|
A|--------------------------------|
E|--------------------------------|
                   
E|----------------------------------|
B|--15-----------15--------16-15----|
G|-----17-17-17-----17-15--------15-|
D|----------------------------------|
A|----------------------------------|
E|----------------------------------|

Verso:

 Bb5       C5           Eb5
   No viviré por lo que veo
G5         F5            Eb5
   No viviré por lo que siento
Bb5        F5        Eb5        (D5-Eb5)
   Yo sé que aquí conmigo estas
Bb5        F5        C5     Eb5 Ebadd9
Yo sé que Tu Eres Grande Dios

Coro:

Bb5                  F5
Por Ti, todo lo puedo
              G5                   Eb5
Todo es posible, y la fuerza Tú me das

Nada es imposible
Bb5                      F5
Por Ti, los ojos se abren
                G5                Eb5
Cadenas son rotas, y yo viviré por Fe
        Bb
Nada es imposible

Ponte 4x:

Eb5                  Bb5
 Creo en Ti, creo en Ti
      C5            Eb5
 Creo en Ti, creo en Ti, Cristo

Coro:

Bb5                  F5
Por Ti, todo lo puedo
              G5                   Eb5
Todo es posible, y la fuerza Tú me das

Nada es imposible
Bb5                      F5
Por Ti, los ojos se abren
                G5                Eb5
Cadenas son rotas, y yo viviré por Fe
        Bb
Nada es imposible

Ponte:

Eb5                  Bb5
 Creo en Ti, creo en Ti
      C5            Eb5
 Creo en Ti, creo en Ti, Cristo
Colaboración y revision:
  • giovanny arguello
5.914 reproducciones
    • ½ Tono
    • A
    • Bb
    • B
    • C
    • Db
    • D
    • Eb
    • E
    • F
    • F#
    • G
    • Ab
  • Adicionar à lista

    0 comentarios

    Ver todos os comentários
    00:00 / 00:00
    outros vídeos desta música
    repetir qualidade Automático
    Outros vídeos desta música
    00:00 / 00:00
    Automático
    OK