Cifra Club

De Waarheid

Marco Borsato

Cifrado: Principal (guitarra y guitarra eléctrica)
Selo Cifra Club: esta cifra foi revisada para atender aos critérios oficiais da nossa Equipe de Qualidade.
tono: Eb
E|----------------------1---|
B|-1---1----3---4---1-------|
G|--------------------------|
D|--------------------------|
A|--------------------------|
E|--------------------------|

   Ik denk aan al die liefde die jij me hebt gegeven
E|----------------------1-1---1---1---1---1---1-1----|
B|--1--1----3---4--1------------------------------4--|
G|---------------------------------------------------|
D|---------------------------------------------------|
A|---------------------------------------------------|
E|---------------------------------------------------|

       En wat jij verwacht
   Aan wat je van me denkt
   En hoe je voor me leeft
E|----------------------1---|
B|-1---1----3---4---1-------|
G|--------------------------|
D|--------------------------|
A|--------------------------|
E|--------------------------|

   Ik ontwijk je ogen
E|--------------------|
B|-3---3---3---3--3-1-|
G|--------------------|
D|--------------------|
A|--------------------|
E|--------------------|

   Als ze mij willen doorgronden
E|--------------------------------|
B|-1----1--4---4---4---4---4--3---|
G|--------------------------------|
D|--------------------------------|
A|--------------------------------|
E|--------------------------------|

   Telkens als ze naar me kijken
E|----------1---1---1---1--1-----|
B|--1--1----------------------4--|
G|-------------------------------|
D|-------------------------------|
A|-------------------------------|
E|-------------------------------|

   Zorg ik dat ik ze net mis
E|----------3---3--3--4---1------|
B|--1----4-----------------------|
G|-------------------------------|
D|-------------------------------|
A|-------------------------------|
E|-------------------------------|

   Als je voor me staat
E|--4---4---4---3---3-------|
B|--------------------------|
G|--------------------------|
D|--------------------------|
A|--------------------------|
E|--------------------------|

   Vlucht ik steeds weer in je armen
E|-------------1------1---1-----1----|
B|---3-----4-----------------4----4--|
G|-----------------------------------|
D|-----------------------------------|
A|-----------------------------------|
E|-----------------------------------|

   Zodat ik niet kan verraden
E|--------1--1----1---3-1--------|
B|-1-4---------------------4-----|
G|-------------------------------|
D|-------------------------------|
A|-------------------------------|
E|-------------------------------|

   Wat de waarheid is
E|-----------------------|
B|--1---3--4---3----1----|
G|-----------------------|
D|-----------------------|
A|-----------------------|
E|-----------------------|


   Elke dag vertel je mij
E|-1-1---1---3--1----------------|
B|------------------4--1---------|
G|-------------------------------|
D|-------------------------------|
A|-------------------------------|
E|-------------------------------|

   hoeveel je van me houdt
E|-----1----1--1---3---1-----|
B|-1-------------------------|
G|---------------------------|
D|---------------------------|
A|---------------------------|
E|---------------------------|

   Hoe fijn je leeft in zekerheid
E|------1----1---1----3-1----------|
B|-1----------------------4--1-----|
G|---------------------------------|
D|---------------------------------|
A|---------------------------------|
E|---------------------------------|

   Hoe jij op mij vertrouwt
E|------1---1--1---3---1-----------|
B|-1-------------------------------|
G|---------------------------------|
D|---------------------------------|
A|---------------------------------|
E|---------------------------------|

   Hoe vertel je iemand
E|-------------------------------|
B|--3---3--3---3--3--1-----------|
G|-------------------------------|
D|-------------------------------|
A|-------------------------------|
E|-------------------------------|

   Dat de aarde niet meer rond is
E|---------------------------------|
B|-1---3---4--4--4----4----4----3--|
G|---------------------------------|
D|---------------------------------|
A|---------------------------------|
E|---------------------------------|

   Dat de vogels niet meer vliegen
E|---------1-1----1----3----1------|
B|--1---3-----------------------4--|
G|---------------------------------|
D|---------------------------------|
A|---------------------------------|
E|---------------------------------|

   En de zon niet langer schijnt
E|--------3----3---3--4---1--------|
B|-1--3----------------------------|
G|---------------------------------|
D|---------------------------------|
A|---------------------------------|
E|---------------------------------|

   Hoe vertel ik jou
E|--4---4--4---4--3-----|
B|----------------------|
G|----------------------|
D|----------------------|
A|----------------------|
E|----------------------|

   Dat het leven dat je leefde
E|----------1-1---1------1----|
B|--4---4-------------4-----4-|
G|----------------------------|
D|----------------------------|
A|----------------------------|
E|----------------------------|

   En de liefde die je voelde
E|--------1-1----1---3--1----|
B|-1--4--------------------4-|
G|---------------------------|
D|---------------------------|
A|---------------------------|
E|---------------------------|

   binnenkort verdwijnt
E|-----------------------|
B|--1--3-4-----3--1------|
G|-----------------------|
D|-----------------------|
A|-----------------------|
E|-----------------------|


   Je raakt me kwijt,
E|------------------------|
B|-4---4----3------3---1--|
G|--------------0---------|
D|------------------------|
A|------------------------|
E|------------------------|
E|------------------------|

   je raakt me kwijt
E|------------------------|
B|-4---4----3---3----1----|
G|------------------------|
D|------------------------|
A|------------------------|
E|------------------------|

   Het is de waarheid

[Outro]
   De waarheid
E|----------------|
B|-4--4---3--3----|
G|----------------|
D|----------------|
A|----------------|
E|----------------|
Otros videos de esta canción
    2 exhibiciones
      • ½ Tono
      • A
      • Bb
      • B
      • C
      • Db
      • D
      • Eb
      • E
      • F
      • F#
      • G
      • Ab
    • Agregar a la lista

    Afinação da cifra

    Afinador online

      Ops (: Contenido disponible solo en portugués.
      OK