Cifra Club

Quem É Ela

Marco e Mario

Tablatura: Principal
reproducciones 211
Tono: G
INTRO: G D9/F# Am C (2x)

Dedilhado:
          G                D9/F#
E|---------3-------|----------0------|
B|--------0--0-----|--------3---3----|
G|------0------0---|------2-------2--|
D|-----------------|-----------------|
A|-----------------|-----------------|
E|---3-------------|---2-------------|

         Am              C
E|----------0------|----------0------|
B|--------1---1----|--------1---1----|
G|------2----------|------0-------0--|
D|-----------------|-----------------|
A|---0-------------|-2-3-------------|
E|-----------------|-----------------|

Variaçâo do Dedilhado:

          G                D9/F#
E|---3-----3-------|---0----0--------|
B|-----0-----0-----|-----3----3------|
G|-------0-----0---|-------2---2-----|
D|-----------------|-----------------|
A|-----------------|-----------------|
E|---3-------------|---2-------------|

         Am              C
E|----------0------|----------0------|
B|--------1---1----|--------1---1----|
G|------2----------|------0-------0--|
D|-----------------|-----------------|
A|---0-------------|-2-3-------------|
E|-----------------|-----------------|

G                   D9/F#
O vento invejou seu cheiro
    Am              C
E a primavera trouxe flores pra ela
G               D9/F#       Am
Até quem passa ligeiro pode notar
    C              G         D9/F#
O seu caminhar gracioso, Morena
     Am                  C           G  D9/F#
Na  leve dança das suas pernas, Morena
     Am                 C               G            D9/F#    Am D9(11)
E o vento que venta vestido e cabelos só pra te revelar... Morena

Am              C                  G
Poema, sonhos, versos, contos de amor
            D9/F#               Am
Cantigas e cirandas são pra ela
       C                G
Até o sol aqui se demorou
                   D9/F#         Am
porque também se apaixonou por ela
C
 Quem é ela?

(G D9/F# Am C)(2x)
     
D9(11)
Regada como as flores
             C
Quem são os amores em seu coração?
D9(11)
Brotou como um milagre
                 C                   D9(11)
Como a flor que nasce no chão do sertão
         G D9/F#
Quem é ela?
      Am                    C
Há tesouros pelos seus contornos
        G  D9/F#
Quem é ela?
   Am            C
E quem não a amará?
        
Quem é ela? 

(G D9/F# Am C)(2x)

D9(11)
Regada como as flores
             C
Quem são os amores em seu coração?
D9(11)
Brotou como um milagre
                 C                   D9(11)
Como a flor que nasce no chão do sertão
         G D9/F#
Quem é ela?
      Am                    C
Há tesouros pelos seus contornos
        G  D9/F#
Quem é ela?
   Am            C
E quem não a amará?
         G D9/F#
Quem é ela?      
      Am                 C          G D9/F#
Todo ouro pra viver um pouco com ela
   Am            C
E quem não a amará?
         G D9/F# Am C
Quem é ela?
         G D9/F# Am C
Quem é ela?
         G D9/F# Am C
Quem é ela? ah, ah, ah, ah
         G D9/F#
Quem é ela?
   Am            C
E quem não a amará?
Acordes para:
    Compositor: MárioColaboración y revision:

    0 comentarios

      mostrar más comentarios

      ¿Conseguiste tocar?

      33tocaron0aún no

      ¡Graba un vídeo tocando Quem É Ela y envianoslo!

      00:00 / 00:00
      outros vídeos desta música
      repetirqualidadeautomática
      Outro vídeos desta música
        00:00 / 00:00
        automática
        OK