Cifra Club

Segredo

Marco e Mario

Cifrado: Principal (guitarra y guitarra eléctrica)
tono: E
Intro: E  B  A  A9

E             B              A
 Num instante,  gira o mundo,
                 B                      A9
 Só que penso em você mais que um segundo,
             E           A9
 Revela pra mim esse segredo,
    B
 No seu olhar.

E           B              A
 Sentimento,  tão profundo,
                      B              A9
 Quando escuto a sua voz eu fico mudo,
         E              A9
 Esse desejo me faz sonhar,
        B
 Queria te encontrar.

C#m            A            E
 Pra soltar a minha voz e dizer,
            B   C#m
 Que eu te amo,
               A                   E
 O quanto eu penso em nós pra nós dois
               B       C#m
 Tenho tantos planos,
            A              E
 Revelar o meu amor pra você
            B     C#m
 Não é brinquedo,
                A                 E
 Por te amar demais assim vou contar,
       B
 Pra você meu segredo

Intro / Solo 2x: C#m  A  E  B
E|----------------------------|------------------------------
A|----------------------------|------------------------------
D|----------------------------|------------4-2-4-------------
G|-------------------1-2/4----|-1-1-1h2-1--------1-----------
B|--2-2-2-4-4/5-4-2-----------|------------------------------
E|----------------------------|------------------------------

E|----------------------------|------------------------------
A|----------------------------|------------------------------
D|----------------------------|------------------------------
G|----------------------------|---------------9-8-6----------
B|----------------------------|-9-9-9/10-9-7-----------------
E|--7/9-9-9-11-12-11-9-5-5/7--|------------------------------

Num instante, gira o mundo...

(Refrão 2x)

(Intro / Solo)
Composición de Marco / Mário
Colaboración y revisión:
  • Michel Goulart
  • Rodrigo Oliveira
25 vistas
    • ½ Tono
    • A
    • Bb
    • B
    • C
    • Db
    • D
    • Eb
    • E
    • F
    • F#
    • G
    • Ab
  • Agregar a la lista

    0 comentarios

    Ver todos los comentarios
    00:00 / 00:00
    Outros vídeos desta música
    Repetir Calidad Automático
    Outros vídeos desta música
    00:00 / 00:00
    Automático
    OK