Cifra Club

Sem Você

Marco e Mario

Cifrado: Principal (guitarra y guitarra eléctrica)
tono: F (con acordes en la forma de E) Capotraste en 1ª casa
Solo:
       C#m            A             E            B
E|----------------------------------------------------|
B|----------------------------------------------------|
G|--10-10-----------------10-10-12-12-----------------|
D|--------7-7-8-8-8-8-----------------14-14-14-14-----|  (2x)
A|----------------------------------------------------|
E|----------------------------------------------------|

 E                                        B
 Pela janela do meu quarto eu vi o seu olhar,
                    C#m
 E sai pra te encontrar,
                      A
 Mas você não estava lá.

E                                        B
 Eu vi a lua e pensei que o brilho era você,
                              C#m
 Se eu enlouquecer a culpa e sua,
                             A  B
 Se eu enlouquecer a culpa sua...

       C#m           A       E     B
 Sem você, magia alguma pode me ajudar,
       C#m              A         E           B
 Sem você, confundo a lua com a luz do seu olhar,
       C#m           A        E      B
 Sem você, magia alguma pode me ajudar,
        A                           B         C#m
 Vou ficar aqui na rua ate você voltar, pra mim.
      C#m            A             E             B
E|----------------------------------------------------|
B|----------------------------------------------------|
G|--10-10-----------------10-10-12-12-----------------|
D|--------7-7-8-8-8-8-----------------14-14-14-14-----|  (2x)
A|----------------------------------------------------|
E|----------------------------------------------------|

 E                                        B
 Pela janela do meu quarto eu vi o seu olhar,
                    C#m
 E sai pra te encontrar,
                      A
 Mas você não estava lá.

E                                        B
 Eu vi a lua e pensei que o brilho era você,
                              C#m
 Se eu enlouquecer a culpa e sua,
                             A  B
 Se eu enlouquecer a culpa sua...

       C#m           A       E     B
 Sem você, magia alguma pode me ajudar,
       C#m              A         E           B
 Sem você, confundo a lua com a luz do seu olhar,
       C#m           A        E      B
 Sem você, magia alguma pode me ajudar,
        A                           B         C#m
 Vou ficar aqui na rua ate você voltar, pra mim.
00:00 / 00:00
Otros videos de esta canción
Repetir
Otros videos de esta canción
Compositor no encontrado.
Colaboración y revisión:
38 vistas
  • Simplificar cifrado
    • ½ Tono
    • A
    • Bb
    • B
    • C
    • Db
    • D
    • Eb
    • E
    • F
    • F#
    • G
    • Ab
  • Agregar a la lista

    0 comentarios

    Ver todos los comentarios
    00:00 / 00:00
    OK