Cifra Club

Dupla Solidão

Marcos & Belutti

Tablatura: Principal (guitarra)
tono: F
[Intro]  Dm  Bb  F  C

E|--------------------------------------------------------------------|
B|-----------------3------3-------3-------3-------3-----3-------------|
G|---------------2--2---2---2---2---2---2---2---2--2---2--2-----------|
D|-------------0------0-----------------------------------------------|
A|----1-0-----------------------------------------------------1-0-----|
E|-------3~-1-----------------1-------1-------3------3-----------3~-1-|

 Dm             F
Sozinho nesse quarto
             G
Tentei refletir
           Bb
Mergulhei bem fundo no meu coração

  Dm
Quis me conhecer
 F            G
Mas eu me perdi
           Bb
Nada entendi, foi tudo em vão

Dm              C
A gente fez de tudo, mas não é pra ser
Dm        C
Eu mudei demais E olha só você
Dm          C
O tempo passou
                 Bb
E alguém ficou pra trás

Dm                C
 Eu tô sozinho aqui
                   G
Nesse quarto de hotel
Ninguém pra eu trair
 Bb
Ninguém pra ser fiel

Dm                C
 Seu corpo eu senti
                G
Mas não tem emoção
Eu e você aqui
Bb
É dupla solidão

[Solo]  Dm  Bb  F  C

E|----------------------------------------|
B|----------------------------------------|
G|-10/7--10/7-7/5---5-5-------------------|
D|----------------7--------8-7-5-3--------|
A|---------------------------------5------|
E|----------------------------------------|

 Dm             F
Sozinho nesse quarto
             G
Tentei refletir
           Bb
Mergulhei bem fundo no meu coração

  Dm
Quis me conhecer
 F            G
Mas eu me perdi
           Bb
Nada entendi, foi tudo em vão

Dm              C
A gente fez de tudo, mas não é pra ser
Dm        C
Eu mudei demais E olha só você
Dm          C
O tempo passou
                 Bb
E alguém ficou pra trás

Dm                C
 Eu tô sozinho aqui
                   G
Nesse quarto de hotel
Ninguém pra eu trair
 Bb
Ninguém pra ser fiel
Dm                C
 Seu corpo eu senti
                G
Mas não tem emoção
Eu e você aqui
Bb
É dupla solidão
Dm                C
 Eu tô sozinho aqui
                   G
Nesse quarto de hotel
Ninguém pra eu trair
 Bb
Ninguém pra ser fiel
Dm                C
 Seu corpo eu senti
                G
Mas não tem emoção
Eu e você aqui
Bb             Dm  Bb  F  C
É dupla solidão
Bb             Dm  Bb  F
É dupla solidão

[Final]

E|----------1-1-1-1-----------|
B|----------3-3-3-3-----------|
G|----------2-2-2-2-----------|
D|-8-7-5-3--0-0-0-0-----------|
A|----------------------------|
E|----------------------------|
Composição de Marcos
457 reproducciones
    • ½ Tono
    • A
    • Bb
    • B
    • C
    • Db
    • D
    • Eb
    • E
    • F
    • F#
    • G
    • Ab
  • Adicionar à lista

    0 comentarios

    Ver todos os comentários
    00:00 / 00:00
    outros vídeos desta música
    repetir qualidade Automático
    Outros vídeos desta música
    00:00 / 00:00
    Automático
    OK