Enviar cifraEntrar

Eu Era

Marcos e Belutti

Acordes: Principal
reproducciones 1.471
Tono: D
Intro: G  D  Bm  A

Solo Intro: 

    G              D               Bm            A
E|-5-5------------5-5-------------5-5----------------| 
B|-----7-5-7~---------7-5--------------7-5-5----3-2~-|
G|-------------------------4~------------------------|
D|---------------------------------------------------|
A|---------------------------------------------------|
E|---------------------------------------------------|


Primeira Parte:
                          G
Aí você escolhe a melhor roupa
                        D
Aí você arruma o seu cabelo
                            Bm
E saí com aquela sua amiga louca
                                 A
Que diz que o bom da vida é ser solteiro
                           G
Me diz se adiantou alguma coisa
                      D
Procurar alívio passageiro
                    Bm
Beijar umas 4 ou 5 bocas
                                 A
Com beijos que não tem gosto de beijo

Pré-Refrão:
                             G
Aí lembrou de mim, não teve jeito
                             A
Aí lembrou de mim, não teve jeito

Refrão:
                 G
Beijou a boca errada, lembrou da boca certa
               D
Entrou numa gelada, lembrou da minha coberta
                     Bm
Sabe esse alguém perfeito que você tanto espera? 
   G       A
Eu era, eu era
            G
Aí você se lembra que a gente se completa
                  D
E vai voltar pra mim se for um pouco esperta
                       Bm
Porque esse alguém perfeito que você tanto espera
   G       A
Eu era, eu era

Solo: 

     G              D               Bm              A
E|-/5-5------------/5-5-------------/5-5---------------| 
B|------7-5h7~----------7-5--------------7-5-5----3p2~-|
G|--------------------------4~-------------------------|
D|-----------------------------------------------------|
A|-----------------------------------------------------|
E|-----------------------------------------------------|


Primeira Parte:
                          G
Aí você escolhe a melhor roupa
                        D
Aí você arruma o seu cabelo
                            Bm
E saí com aquela sua amiga louca
                                 A
Que diz que o bom da vida é ser solteiro
                           G
Me diz se adiantou alguma coisa
                      D
Procurar alívio passageiro
                    Bm
Beijar umas 4 ou 5 bocas
                                 A
Com beijos que não tem gosto de beijo

Pré-Refrão:
                             G
Aí lembrou de mim, não teve jeito
                             A
Aí lembrou de mim, não teve jeito

Refrão 2x:
                 G
Beijou a boca errada, lembrou da boca certa
               D
Entrou numa gelada, lembrou da minha coberta
                     Bm
Sabe esse alguém perfeito que você tanto espera? 
   G       A
Eu era, eu era
            G
Aí você se lembra que a gente se completa
                  D
E vai voltar pra mim se for um pouco esperta
                       Bm
Porque esse alguém perfeito que você tanto espera
   G       A
Eu era, eu era

Solo Final:

E|-/5-5------------------| 
B|---------7-5-5----3-2~-|
G|-----------------------|
D|-----------------------|
A|-----------------------|
E|-----------------------|
  • 1
  • 2
  • 3
  • 4
  • 5
  • 6
  • 7
  • 8
  • 9
  • 10
  • 11
  • 12
    Acordes para:
      Colaboración y revision:

      0 comentarios

        mostrar mas comentarios

        ¿Conseguiste tocar?

        11tocaron0aún no

        ¡Grave un vídeo tocando Eu Era y envie para nosotros!

        00:00 / 00:00
        outros vídeos desta música
        repetirqualidadeautomática
        • automática
        Outro vídeos desta música
          00:00 / 00:00
          automática
          • automática
          Acordes para:guitarra
          dificuldadreproduccionescontribuciones
          cerrarplay/pause subir/bajar velocidad
            Acordes para:guitarra
            acordes
            cerrar
            OK