Eu Era

Marcos & Belutti

Composición de: Bruno Caliman / Rafael Torres
tono: D
[Intro]

Parte 1

   G9             D5
E|-----5-5-2---2------5-5-2-----------------|
B|-----3-----5--------3-----5-0-------------|
G|-----2------------2-2---------------------|
D|---0------------3-------------------------|
A|------------------------------------------|
E|-3----------------------------------------|

Parte 2

   Bm7             D/A  A
E|-----5-5-2--------------------------------|
B|-----3-----2-2----3---2-------------------|
G|-----2------------2---2-------------------|
D|---4--------------4---2-------------------|
A|-2--------------0-------------------------|
E|------------------------------------------|

[Primeira Parte]

                          G9
Aí você escolhe a melhor roupa
                        D5
Aí você arruma o seu cabelo
                            Bm7
E sai com aquela sua amiga louca

Que diz que o bom da vida 
          A    D/A
É ser solteiro

                           G9
Me diz se adiantou alguma coisa
                      D5
Procurar alívio passageiro
                             Bm7
Beijar umas quatro ou cinco bocas
                                 A  D/A
Com beijos que não têm gosto de beijo

                             G9
Aí lembrou de mim, não teve jeito
                             A9
Aí lembrou de mim, não teve jeito

[Primeira Parte]

Parte 1

   G9*               D5
E|-----5-------5---------5-------5----------|
B|-----3-------3---------3---3---3----------|
G|---------0-----------2---2---2---2--------|
D|---0---0---0---0---0----------------------|
A|------------------------------------------|
E|-3----------------------------------------|

Parte 2

   Bm7              A             D/A
E|-----5-------5--------x-----x-------------|
B|-----3---3---3------2-x---2-x---2h3-------|
G|---2---2---2---2----2-x---2-x---2---------|
D|--------------------2-x---2-x---2h4-------|
A|-2----------------0---x-0---x-0-----------|
E|----------------------x-----x-------------|

Parte 1

   G9*               D5
E|-----5-------5---------5-------5----------|
B|-----3-------3---------3---3---3----------|
G|---------0-----------2---2---2---2--------|
D|---0---0---0---0---0----------------------|
A|------------------------------------------|
E|-3----------------------------------------|

Parte 2

   Bm7              A             D/A
E|-----5-------5--------x-----x-------------|
B|-----3---3---3------2-x---2-x---2h3-------|
G|---2---2---2---2----2-x---2-x---2---------|
D|--------------------2-x---2-x---2h4-------|
A|-2----------------0---x-0---x-0-----------|
E|----------------------x-----x-------------|

Parte 3

   G9*          A9
E|-5-5--5-5-5---0-0--0-0-0------5-----------|
B|-3-3--3-3-3---0-0--0-0-0------------------|
G|-0-0--0-0-0---2-2--2-2-2--4/6-------------|
D|-0-0--0-0-0---2-2--2-2-2------------------|
A|--------------0-0--0-0-0------------------|
E|-3-3--3-3-3-------------------------------|
   ↓ ↓  ↑ ↓ ↓   ↓ ↓  ↑ ↓ ↓

[Refrão]

                 G5
Beijou a boca errada

Lembrou da boca certa
               D9
Entrou numa gelada

Lembrou da minha coberta
                     Bm7
Sabe esse alguém perfeito 

Que você tanto espera
   G5      A9
Eu era, eu era

            G5
Aí você se lembra

Que a gente se completa
                  D9
E vai voltar pra mim

Se for um pouco esperta
                       Bm7
Porque esse alguém perfeito

Que você tanto espera
   G5      A9  G5  D9
Eu era, eu era
     Bm7  A9
Eu era

[Primeira Parte]

                          G5
Aí você escolhe a melhor roupa
                        D9
Aí você arruma o seu cabelo
                            Bm7
E sai com aquela sua amiga louca

Que diz que o bom da vida 
          A9
É ser solteiro

                           G5
Me diz se adiantou alguma coisa
                      D9
Procurar alívio passageiro
                             Bm7
Beijar umas quatro ou cinco bocas
                                 A9
Com beijos que não têm gosto de beijo

                             G9
Aí lembrou de mim, não teve jeito
                             A9
Aí lembrou de mim, não teve jeito

[Refrão]

                 G5
Beijou a boca errada

Lembrou da boca certa
               D9
Entrou numa gelada

Lembrou da minha coberta
                     Bm7
Sabe esse alguém perfeito 

Que você tanto espera
   G       A9
Eu era, eu era

            G5
Aí você se lembra

Que a gente se completa
                  D9
E vai voltar pra mim

Se for um pouco esperta
                       Bm7
Porque esse alguém perfeito

Que você tanto espera
   G5      A9
Eu era, eu era

[Refrão Final]

                 G5
Beijou a boca errada

Lembrou da boca certa
               D9
Entrou numa gelada

Lembrou da minha coberta
                     Bm7
Sabe esse alguém perfeito 

Que você tanto espera
   G       A9
Eu era, eu era

            G5
Aí você se lembra

Que a gente se completa
                  D9
E vai voltar pra mim

Se for um pouco esperta
                       Bm7
Porque esse alguém perfeito

Que você tanto espera
   G5      A9
Eu era, eu era
   G5   A  D/A    A   D/G
Eu era,        eu era
Página 1 / 1

Letras y titulo
Acordes y artista

restablecer los ajustes
OK