Cifra Club

Poeira da Lua

Marcos & Belutti

Cifrado: Principal (guitarra y guitarra eléctrica)
Já pensou em usar uma coleção de roupas do Cifra Club? Responda as perguntas abaixo e nos ajude nessa missão! →
tono: Ab (con acordes en la forma de G) Capotraste en 1ª casa
            C  G              D9  Em7
Meus pés esta-vam pulando calça--das
            C   G           D9
Pulando as divisões das calçadas

E|3-----3-----3------3-----3-------3------3------0-----0-----0--------|
B|--1-----1-----3------3-----3-------2------2------2-----2-----2------|
G|----0-----0------0------0----0-------3------3------0-----0-----0----|
D|---------------------------------0----------------------------------|
A|3-------------------------------------------------------------------|
E|------------3----------------------------------0--------------------|

E|3-----3-----3------3-----3-------3------3------3-----3-------3------|
B|--1-----1-----3------3-----3-------2------2------2-----2-----2------|
G|----0-----0------0------0----0-------3------3------3-----3---3------|
D|---------------------------------0---------------------------0------|
A|3-------------------------------------------------------------------|
E|------------3-------------------------------------------------------|

            C  G            D9  Em7
Dois pés sozinhos e uma estra--da
             C     G   D9
Dois pés chutando latas

          Em7  C          D9
Aí eles trope-çaram em você

E|-------------------------------0-------|
B|-------------------------------1-------|
G|--------------0-2-0---0--------0-------|
D|----0-2s4s2s4-------4---4-2-0--2-------|
A|-0h2---------------------------3-------|
E|---------------------------------------|

          Em7  C          D9
Aí eles trope-çaram em você

 C          G           D9       Em7
Você me beijou e eu voltei do espaço
     C         G        D9
Com poeira da lua no sapatos

E|-0h2-2-3-2-----------------0---|
B|-----------3s5s3-----------1---|
G|-----------------4-2-0-----0---|
D|-----------------------2-0-2---|
A|---------------------------3---|
E|-------------------------------|

 C          G           D9       Em7
Você me beijou e eu voltei do espaço
     C         G        D9
Com poeira da lua no sapatos

( C  G  D9 )
( C  G  D9 )

            C  G              D9  Em7
Meus pés esta-vam pulando calça--das
            C   G           D9
Pulando as divisões das calçadas

            C  G            D9  Em7
Dois pés sozinhos e uma estra--da
             C     G   D9
Dois pés chutando latas

E|---0-2-3-2-0-----------------|
B|-3-----------3-3s5-----------|
G|-----------------------------|
D|-----------------------------|
A|-----------------------------|
E|-----------------------------|

          Em7  C          D9
Aí eles trope-çaram em você

E|------2---------------------|
B|--0h3-3-3s5-----------------|
G|--0h2---2s4-----------------|
D|----------------------------|
A|----------------------------|
E|----------------------------|

       Em7  C          D9
Eles trope-çaram em você

 C          G           D9       Em7
Você me beijou e eu voltei do espaço
     C         G        D9
Com poeira da lua no sapatos

E|-0h2-2-3-2-----------------0--|
B|-----------3s5s3-----------1--|
G|-----------------4-2-0-----0--|
D|-----------------------2-0-2--|
A|---------------------------3--|
E|------------------------------|

 C          G           D9       Em7
Você me beijou e eu voltei do espaço
     C         G        D9
Com poeira da lua no sapatos

E|------3---------3---------------------|
B|------1---------3--------3-x-3---3----|
G|---0---------0-----------2-x-2---0----|
D|-----------------------0---x-0---2----|
A|-3-------------------------x----------|
E|-----------3--------2------x-----0----|

 C          G           D9       Em7
Você me beijou e eu voltei do espaço

E|------3---------3-----2---------------|
B|------1---------3-----3---------------|
G|---0---------0--------2---------------|
D|----------------------0---------------|
A|-3------------------------------------|
E|-----------3----------2---------------|

     C         G        D9
Com poeira da lua no sapatos

 C9   G/B   G5(9)  G   D/F#   D9/E   Em7
Você me beijou e   eu voltei do   espaço
     C         G        D9
Com poeira da lua no sapatos
C       G       D9        Em7
Ooouuuoooo com poeira da lua
C       G       D9
Ooouuuooooooooo

E|-----------------------|
B|-0h3s5-5s7-7s8---------|
G|-----------------------|
D|-----------------------|
A|-----------------------|
E|-----------------------|

     C         G        D9
Com poeira da lua no sapatos
Composición de Bruno Caliman
1.581 vistas
  • Simplificar cifrado
    • ½ Tono
    • A
    • Bb
    • B
    • C
    • Db
    • D
    • Eb
    • E
    • F
    • F#
    • G
    • Ab
  • Agregar a la lista

    0 comentarios

    Ver todos los comentarios
    00:00 / 00:00
    Outros vídeos desta música
    Repetir Calidad Automático
    Outros vídeos desta música
    00:00 / 00:00
    Automático
    OK