Cifra Club

Sutil

Marcos & Belutti

Cifrado: Principal (guitarra y guitarra eléctrica)
Já pensou em usar uma coleção de roupas do Cifra Club? Responda as perguntas abaixo e nos ajude nessa missão! →
tono: G
[Intro] G  C  Bm7
        Em7  Am7  G

E|------------------------------------------|
B|-----7/8-7--------------------------------|
G|-2/4-------7--4\2-0----5/7-5-4-2p0-2------|
D|--------------------4---------------------|
A|------------------------------------------|
E|------------------------------------------|

E|------------------------------------------|
B|-------7-8--------------------------------|
G|-2h4-7-----4--5/7-5-4-0-2/4~--------------|
D|------------------------------------------|
A|--------------3/5-3-2---0/2~--------------|
E|----------------------3-------------------|

[Primeira Parte]

          G         C
Quando a gente é criança
                    Bm7
Tudo é lindo e colorido
 Em7 Am7
De  ver
G                     C
  As lembranças da infância
                       Bm7    Em7  Am7                 
Do primeiro beijo ao primeiro a___mor

[Pré-Refrão]

C                  Cm
  E por falar em amor
                   Bm7
Dói no peito perceber
                       A#°                   
Que a ferida que mais dói
                      Am7
Vem de quem a gente ama
                   Cm
É preciso compreender
                       Bm7
Que pra tudo há uma razão
                    A#°
Sei que cicatrizes são

Provas do meu crescimento 
Am7             G/B
   E a vida eu sei
          C
Daria um livro bom

[Refrão]

G            C
  É que o autor
                         Bm7
Que escreveu a minha história
Em7      Am7            C      
   Sabe bem o que é melhor pra mim
G       C                      Bm7
 E me amou tanto que me fez saber
        Em7           Am7         C      G
Tudo é parte do seu plano pra me ver sorrir

[Solo] C  Bm7  Em7  Am7  G/B

E|------------------------------------------|
B|-----7/8-7--------------------------------|
G|-2/4-------7--4\2-0----5/7-5-4-2p0-2------|
D|--------------------4---------------------|
A|------------------------------------------|
E|------------------------------------------|

E|------------------------------------------|
B|-------7-8--------------------------------|
G|-2h4-7-----4--5/7-5-4-0-4/5~--------------|
D|------------------------------------------|
A|--------------3/5-3-2---2/3~--------------|
E|----------------------3-------------------| 

[Pré-Refrão]

C                  Cm
  E por falar em amor
                   Bm7
Dói no peito perceber
                       A#°                   
Que a ferida que mais dói
                      Am7
Vem de quem a gente ama
                   Cm
É preciso compreender
                       Bm7
Que pra tudo há uma razão
                    A#°
Sei que cicatrizes são

Provas do meu crescimento 
Am7             G/B
   E a vida eu sei
          C
Daria um livro bom

[Refrão]

G            C
  É que o autor
                         Bm7
Que escreveu a minha história
Em7      Am7            C      
   Sabe bem o que é melhor pra mim
G       C                      Bm7
 E me amou tanto que me fez saber
        Em7           Am7         C      
Tudo é parte do seu plano pra me ver sorrir

G            C
  É que o autor
                         Bm7
Que escreveu a minha história
Em7      Am7            C      
   Sabe bem o que é melhor pra mim
G       C                      Bm7
 E me amou tanto que me fez saber
        Em7           Am7         C      G
Tudo é parte do seu plano pra me ver sorrir
Composición de Gabriel Agra / Matheus Marcolino
Colaboración y revisión:
  • Thiago Almeida
17 vistas
    • ½ Tono
    • A
    • Bb
    • B
    • C
    • Db
    • D
    • Eb
    • E
    • F
    • F#
    • G
    • Ab
  • Agregar a la lista

    0 comentarios

    Ver todos los comentarios
    00:00 / 00:00
    Outros vídeos desta música
    Repetir Calidad Automático
    Outros vídeos desta música
    00:00 / 00:00
    Automático
    OK