Cifra Club

Trânsito de São Paulo

Marcos & Belutti

Tablatura: Principal (guitarra)
Já pensou em usar uma coleção de roupas do Cifra Club? Responda as perguntas abaixo e nos ajude nessa missão! →
tono: F (con acordes en la forma de E) Capotraste na 1ª casa
[Intro] E  C#m  A9

E|-------5/7------9h10p9-7------------------|
B|-5-7-5------5-7---------------------------|
G|------------------------------------------|
D|------------------------------------------|
A|------------------------------------------|
E|------------------------------------------|

[Primeira Parte]

 E                                   C#m
To pegando o carro agora to sem direção
                                       A9
Entrando em qualquer rua to na contra mão
                                        Am
Ao ver que tudo não passou de um vento pelas mãos
 E                                C#m
To chorando meia hora em algum lugar
                                 A9
Sem rumo sem saber por onde começar
                                    Am
Perdido sim, mas todos os detalhes me fazem lembrar

[Pré-Refrão]

 E                                 B9
Do seu olhar apaixonado no retrovisor
                                       A9
Ouvindo sua voz tão rouca falando de amor
                                      
O que importa mesmo é estar ao seu lado
 
Mesmo nesse trânsito de São Paulo

[Refrão]

E                                 B9
  A duzentos por hora sigo sem radar
                                 C#m
Nenhum sinal vermelho pode me parar
                           A9
E só uma pessoa pode me deter

É você

E                                 B9
  A duzentos por hora ta meu coração
                                 C#m
Buscando mil motivos uma explicação
                                 A9
E só tem uma coisa que vai me dizer

É você

[Solo] E  B9  C#m  Am

E|------------------------------------------|
B|------------------------------------------|
G|------------------------------------------|
D|---2---2---2---2---2-4-2/4----------------|
A|-2---2---2---2---2------------------------|
E|------------------------------------------|

E|------------------------------------------|
B|------------------------------------------|
G|------------------------------------------|
D|-2-4-2-4-2-4-2-4-2-1-2-1h2----------------|
A|------------------------------------------|
E|------------------------------------------|

E|------------------------------------------|
B|------------------------------------------|
G|------------------------------------------|
D|-2-4-2-4-2-4-2-4-2-1-2------2--2h4-2h4-2--|
A|------------------------3-5---------------|
E|------------------------------------------|

[Pré-Refrão]

 E                                 B9
Do seu olhar apaixonado no retrovisor
                                       A9
Ouvindo sua voz tão rouca falando de amor
                                      
O que importa mesmo é estar ao seu lado
 
Mesmo nesse trânsito de São Paulo

[Refrão]

E                                 B9
  A duzentos por hora sigo sem radar
                                 C#m
Nenhum sinal vermelho pode me parar
                           A9
E só uma pessoa pode me deter

É você

E                                 B9
  A duzentos por hora ta meu coração
                                 C#m
Buscando mil motivos uma explicação
                                 A9
E só tem uma coisa que vai me dizer

É você

E                                 B9
  A duzentos por hora sigo sem radar
                                 C#m
Nenhum sinal vermelho pode me parar
                           A9
E só uma pessoa pode me deter

É você

E                                 B9
  A duzentos por hora ta meu coração
                                 C#m
Buscando mil motivos uma explicação
                                 A9
E só tem uma coisa que vai me dizer

É você

E      B9
  É você
     C#m
É você
   A9
Você
Composição de PAULA MATTOS
Colaboración y revision:
143 reproducciones
    • ½ Tono
    • A
    • Bb
    • B
    • C
    • Db
    • D
    • Eb
    • E
    • F
    • F#
    • G
    • Ab
  • Adicionar à lista

    0 comentarios

    Ver todos os comentários

    ¿Conseguiste tocar?

    3 Tocaram 0 Ainda não

    Grave um vídeo tocando Trânsito de São Paulo e nos envie!

    00:00 / 00:00
    outros vídeos desta música
    repetir qualidade Automático
    Outros vídeos desta música
    00:00 / 00:00
    Automático
    OK