Cifra Club

Aprenda

Derrama de Tu Fuego

Marcos Witt

Tablatura: Principal (guitarra)
tono: Eb
Intro 2x: Cm  Bb  Ab
E|-----------------------------|
B|-----------------------------|
G|-----------------------------|
D|-----------------------------|
A|-3-3-3-3-5-3-1-1-3-----------|
E|-------------------1---------|
                
Cm                 Bb    Fm  Cm           Bb Fm
Grande y poderoso eres Tú mi Dios
Cm                Bb    Fm Cm           Bb Fm
Fuerte y poderoso eres Tú mi Rey
Cm                 Bb    Fm  Cm           Bb Fm
Grande y poderoso eres Tú mi Dios
Cm                Bb    Fm Cm           Bb Fm
Fuerte y poderoso eres Tú mi Rey

CORO:
     Cm                        Eb           F
Derrama de Tu fuego, sobrenatural
     Cm                        Eb               F
Derrama de Tu gloria, sobre este lugar
     Cm                        Eb           F
Derrama de Tu fuego, sobrenatural
     Cm                        Eb                F
Derrama de Tu gloria, sobre este lugar

       Cm                 Bb     Fm
Anhelamos más de Ti Señor
       Cm                 Bb     Fm
Anhelamos más de Tu amor
                        Cm         Bb    Fm
Derrama de Tu fuego hoy, Señor 

Interludio: (Cm Bb G#)4

CORO

Final: (Cm Bb Ab)4


E|-----------------------------|----------------------------------------
B|-----------------------------|----------------------------------------
G|-----------------------------|----------------------------0-3-2-0-----
D|---------1-----------0-1-0---|-----------1--------------2-------------
A|-3-3-3-1---3-----1-3-------3-|---3-3-3-1---3-------1s3----------------
E|---------------3-------------|-------------------3--------------------
                
E|----------------------------------------------------------------------|
B|----------------------------------------------------------------------|
G|--------------------------------------------------------0-3-2-0-------|
D|-----------1-------------------------------1----------2---------------|
A|--3-3-3-1---3-----1-3--5-6-3h5-3---3-3-3-1---3----1s3-----------------|
E|----------------3-------------------------------3---------------------|

E|-------------------------|-------------------|-------------------------
B|-------------------------|-------------------|-------------------------
G|-------------------------|-------------------|-------------------------
D|-----3s5-1----3s5-1------|-------------------|-------------------------
A|---3--------3-------1s3--|-------------------|-------------------------
E|-------------------------|-------------------|-------------------------
Composição de Marcos Witt
Colaboración y revision:
  • giovanny arguello
735 reproducciones
    • ½ Tono
    • A
    • Bb
    • B
    • C
    • Db
    • D
    • Eb
    • E
    • F
    • F#
    • G
    • Ab
  • Adicionar à lista

    0 comentarios

    Ver todos os comentários
    00:00 / 00:00
    outros vídeos desta música
    repetir qualidade Automático
    Outros vídeos desta música
    00:00 / 00:00
    Automático
    OK