Cifra Club

Poderoso Dios

Marcos Witt

Cifrado: Principal (guitarra y guitarra eléctrica)
tono: C
Intro:

E|---------------------------------------------------------------------|
B|--13--13-13---12-13-----13--15-15s17-17---13-15-13-------------------|
G|---------------------12----------------------------------------------|
D|---------------------------------------------------------------------|
A|---------------------------------------------------------------------|
E|---------------------------------------------------------------------|

E|-----------------9s17--17-15---15-17---------------------------------|
B|--13--13-13---12-----------------------17----------------------------|
G|---------------------------------------------------------------------|
D|---------------------------------------------------------------------|
A|---------------------------------------------------------------------|
E|---------------------------------------------------------------------|

E|---------------------------------------------------------------------|
B|--17--17-17---15-17---13-12------------------------------------------|
G|----------------------------12-10---9----9-10--12--------------------|
D|--------------------------------------10----------12--10-9-----7---5-|
A|---------------------------------------------------------------------|
E|---------------------------------------------------------------------|





C                           Am
Al que esta sentaado een el trono
        F     Dm          G
y al Cordero , sea el honor
       C               Am
sea la gloria, sea la honra
           F    Dm                        G
sea el dominio   por los siglos de los siglos

           C
Poderoso Dios
           Am
Poderoso Dios
           F
Poderoso Dios
Dm                   G
   Mi alma clama por Ti
00:00 / 00:00
Otros videos de esta canción
Repetir
Otros videos de esta canción
Composición de Antônio Cirilo
1.727 vistas
    • ½ Tono
    • A
    • Bb
    • B
    • C
    • Db
    • D
    • Eb
    • E
    • F
    • F#
    • G
    • Ab
  • Agregar a la lista

    0 comentarios

    Ver todos los comentarios
    00:00 / 00:00
    OK