Cifra Club

O Leãozinho

Maria Bethânia

Cifrado: Principal (guitarra y guitarra eléctrica)
tono: G
Intro: G

Dedilhado 1ª e 2ª parte:

      G               D7              Em              Bm              C               F              Repete o G
E|----7---7---7---7----10----10----10----10---7---7---7---7---7---7---7---7---8----8----8----8---8-----8-----8-----8-|
B|----8---8---8---8----10----10----10----10---8---8---8---8---7---7---7---7---8----8----8----8---10----10----10----10|
G|----7---7-7-7---7----11----11----11----11---9---9-9-9---9---7---7---7---7---9----9----9----9---10----10-10-10----10|
D|------9-------9---------------10--------------9-------9-----------9----------------10-------------10----------10---|
A|-10---------------------12----------12----7-------------------9-------9-------10--------10---8---------------------|
E|------------------10--------------------------------------7---------------8----------------------------------------|

 1ª parte:
G                     D7              Em                 Bm
 Gosto muito de te ver,  leãozinho   caminhando sob o sol
C                   F            G
 Gosto muito de você,   leãozinho
                   D7            Em                  Bm
 Para desentristecer,  leãozinho   o meu coração tão só
C                       F            G
 Basta eu encontrar você   no caminho

Dedilhado refrão

       Em*              Em/D#           Em/D            Em/C#           C7+             Em/B
E|-----12----12----12----12----12----12----12----12----12----12----12----12----12----12----12----12----7----7----7----7---7---7---7---7-
B|-----12----12----12----12----12----12----12----12----12----12----12----12----12----12----12----12----8----8----8----8---8---8---8---8-
G|-----12-12-12----12-12-12----12-12-12----12-12-12----12-12-12----12-12-12----12-12-12----12-12-12----9----9----9----9---9---8---9---9-
D|--14----------14----------13----------13----------12----------12----------11----------11----------10---10---10---10---9---9---9---9---
A|--------------------------------------------------------------------------------------------------------------------------------------
E|--------------------------------------------------------------------------------------------------------------------------------------

        Am7             D7
E|-----8---8---8---8----10----10----10----10-|
B|-----8---8-8-8---8----10----10----10----10-|
G|-------9-------9------11----11----11----11-|
D|---7---------------------------10----------|
A|-------------------------12----------12----|
E|-------------------10----------------------|

 Refrão:
Em*              Em/D#            Em/D     Em/C#
 Um filhote de leão,   raio da manhã
C7+                   Em/B         Am7     D7
 Arrastando o meu olhar como um imã...
Em*                  Em/D#             Em/D   Em/C#
 O meu coração é o sol,   pai de toda cor
C7+                    Em/B         Am7     D7
 Quando ele lhe doura a pele ao léu...

 2ª parte:
G                      D7            Em                      Bm
 Gosto de te ver ao sol,  leãozinho   de te ver entrar no mar
C              F           G
 Tua pele tua luz tua juba...
                     D7              Em                     Bm
 Gosto de ficar ao sol,   leãozinho   de molhar a minha juba
C                      F               G
 De estar perto de você e entrar numa
Composición de Caetano Veloso
Colaboración y revisión:
  • João Belleza
71 vistas
    • ½ Tono
    • A
    • Bb
    • B
    • C
    • Db
    • D
    • Eb
    • E
    • F
    • F#
    • G
    • Ab
  • Agregar a la lista

    0 comentarios

    Ver todos los comentarios

    ¿Lograste tocar?

    1 Tocaron 0 Aún no

    ¡Graba un video tocando O Leãozinho y envíanoslo!

    00:00 / 00:00
    Outros vídeos desta música
    Repetir Calidad Automático
    Outros vídeos desta música
    00:00 / 00:00
    Automático
    OK