Enviar cifraEntrar

Lendas e Mistérios

Maria Cecília e Rodolfo

Acordes: Principal
reproducciones 164
Tono: D Afinación: Db Gb Cb E G Db
Intro:

E|------------------------------------------------------------------|
B|------------------------------------------------------------------|
G|----------------------------------------------------------7--4----|
D|-7h9-9-9/7-7-7/5-5--------------7/9-9-9/7-7-7/5-5-5/7-------------|
A|-------------------7/9--10----------------------------------------|
E|------------------------------------------------------------------|


E|------------------------------------------------------------------|
B|------------------------------------------------------------------|
G|-------------------------------------5/7-7-7/4-4-4/2-2-2h0---4--o-|
D|-7h9-9-9/7-7-7/5-5------------------------------------------------|
A|-------------------7/9--10----------------------------------------|
E|------------------------------------------------------------------|



Intro: Em  C

Em                              C
Diz a lenda que muitos e muitos anos atrás


E|---------------------------------------------|
B|------------------5/7--8--8~~----------------|
G|-----------4---------------------------------|
D|--------5------------------------------------|
A|-----7---------------------------------------|
E|---------------------------------------------|


Em                               C
Um casal que se amava contra a vontade dos pais


E|---------------------------------------------|
B|---------------------------------------------|
G|---------------------------------------------|
D|---------5---5--7--5~------------------------|
A|---5/7---------------------------------------|
E|---------------------------------------------|



G                  D/F#
Se encontravam escondidos na escuridão
Em                 C
Eram guiados pela força da sua paixão
Em                    D
Era o amor vencendo o medo,
                   C
Eles guardavam o segredo

A sete chaves em seu coração

Em                             C
Deus ouvindo as preces daquele Jovem casal
Em
Resolveu, lá do céu,
                    C
Lhe mandar o mais lindo sinal

G                    D/F#
E nesse instante uma luz iluminou o céu
Em                C
E ele prometeu olhando em seus olhos de mel
Em                          D
O mundo inteiro vai saber que foi
                   C
O nosso amor que fez nascer
        D
A lua cheia no céu

Em            C
Pra iluminar quem quiser amar
G                     D
Uma vez por mês a lua cheia vai brilhar
Em                 C
Lendas e mistérios de um amor eterno
G                            D
Que nem mesmo o tempo foi capaz de apagar

Cm             G
Foi assim que aconteceu
Cm          D
Um amor que não morreu

Solo: Em  C  G  D  Fm  C#  G#m  Eb

Fm                             C#
Deus ouvindo as preces daquele jovem casal
Fm                                     C#
Resolveu, lá do céu, lhe mandar o mais lindo sinal

G#                   Eb
E nesse instante uma luz iluminou o céu
Fm                 C#
E ele prometeu olhando em seus olhos de mel
Fm                         Eb
O mundo inteiro vai saber que
                     C#
Foi o nosso amor que fez nascer
        Eb
A lua cheia no céu

Fm             C#
Pra iluminar quem quiser amar
G#                     Eb
Uma vez por mês a lua cheia vai brilhar
Fm                 C#
Lendas e mistérios de um amor eterno
G#                           Eb
Que nem mesmo o tempo foi capaz de apagar

Dm             A
Foi assim que aconteceu
Dm         E
Um amor que não morreu

F#m            D
Pra iluminar quem quiser amar
A                     E
Uma vez por mês a lua cheia vai brilhar
F#m                 D
Lendas e mistérios de um amor eterno
A                            E
Que nem mesmo o tempo foi capaz de apagar

C#m           G#
Foi assim que aconteceu
C#m         Eb
Um amor que não morreu
  • 1
  • 2
  • 3
  • 4
  • 5
  • 6
  • 7
  • 8
  • 9
  • 10
  • 11
  • 12

    0 comentarios

      mostrar mas comentarios

      ¿Conseguiste tocar?

      35tocaron1aún no

      ¡Grave un vídeo tocando Lendas e Mistérios y envie para nosotros!

      00:00 / 00:00
      outros vídeos desta música
      repetirqualidadeautomática
      • automática
      Outro vídeos desta música
        00:00 / 00:00
        automática
        • automática
        cerrarplay/pause subir/bajar velocidad
          acordes
          cerrar
          OK
          Feedback