Cifra Club

Tentativas

Marília Mendonça

Tablatura: Principal (guitarra)
tono: D
[Intro] A4  ( A7  A6 )  D9/A

E|----------------------------------------|
B|----------------------------------------|
G|----------------------------------------|
D|--------4h5-4---5-4--4------------------|
A|-/5-5-7-------7------7------------------|
E|---------------------5------------------|

[Primeira Parte]

                    A4
Por que é que tá errado 
                     Bm
Se tem tudo pra dar certo?
                       A4
Por que é que a gente não 
       D9/A
Tá perto?
                 A4
Nosso amor coleciona 
                  Bm
Tentativas sem sucesso
          
E a solução
    A4       D9
Eu não enxergo

[Pré-Refrão]

 D
Falta paciência e 
       A
Sobra personalidade
   Em
Quando um vai falar
         G
O outro não sabe escutar
 D
Nessa hora, o sangue ferve
  A      
E o controle a gente perde
Em    
Um joga a culpa no outro 
      G            D  
E terminamos de novo

[Refrão]

          A7
Não tem amor 

Que aguenta isso
     Em
Não tem
         G
A gente tá fazendo 
                 D
Mais mal do que bem 
             A7
Acho que eu não dou certo 
         Em
Com ninguém 
           G
Desse problema
             D
Cê sofre também 

          A7
Não tem amor 

Que aguenta isso
     Em
Não tem
         G
A gente tá fazendo 
                 D
Mais mal do que bem 
             A7
Acho que eu não dou certo 
         Em
Com ninguém 
           G
Desse problema
             D
Cê sofre também 

[Solo] D  A  Em7(9)  G7M
       D  A  Em7(9)  G7M

E|----------------------------------------|
B|-8/13-13~--/14--------------------------|
G|---------------16p14h16-14-16-----------|
D|----------------------------------------|
A|----------------------------------------|
E|----------------------------------------|

E|----------------------------------------|
B|----------------------------------------|
G|----------14--------------11------------|
D|-12/17-17----12~-----12---12--11h12-----|
A|------------------14----14----10--------|
E|----------------------------------------|

E|----------------------------------------|
B|----------------------------------------|
G|----------11h12-11-11/12----/12-11------|
D|----12-14----------------14--------14---|
A|-12-------------------------------------|
E|----------------------------------------|

E|-----------/12-12-14b15-12-14~----------|
B|-------12~------------------------------|
G|----------------------------------------|
D|-12-14----------------------------------|
A|----------------------------------------|
E|----------------------------------------|

[Pré-Refrão]

 D
Falta paciência e 
       A
Sobra personalidade
   Em
Quando um vai falar
         G
O outro não sabe escutar
 D
Nessa hora, o sangue ferve
  A      
E o controle a gente perde
Em    
Um joga a culpa no outro 
      G            D  
E terminamos de novo

[Refrão]

          A7
Não tem amor 

Que aguenta isso
     Em
Não tem
         G
A gente tá fazendo 
                 D
Mais mal do que bem 
             A7
Acho que eu não dou certo 
         Em
Com ninguém 
           G
Desse problema
             D
Cê sofre também 

          A7
Não tem amor 

Que aguenta isso
     Em
Não tem
         G
A gente tá fazendo 
                 D
Mais mal do que bem 
             A7
Acho que eu não dou certo 
         Em
Com ninguém 
           G
Desse problema
             D
Cê sofre também
Composição de Gabriel Agra / Graciano Teg / Luiz Henrique Paloni / Matheus Marcolino / Marília Mendonça / Thiago Teg
Colaboración y revision:
  • Gabriel Silva
11 reproducciones
    • ½ Tono
    • A
    • Bb
    • B
    • C
    • Db
    • D
    • Eb
    • E
    • F
    • F#
    • G
    • Ab
  • Adicionar à lista

    0 comentarios

    Ver todos os comentários

    ¿Conseguiste tocar?

    4 Tocaram 1 Ainda não

    Grave um vídeo tocando Tentativas e nos envie!

    00:00 / 00:00
    outros vídeos desta música
    repetir qualidade Automático
    Outros vídeos desta música
    00:00 / 00:00
    Automático
    OK