Cifra Club

Kayleigh

Marillion

Cifrado: Principal (guitarra y guitarra eléctrica)
tono: D
INTRO: Bm A Bm A F#m G A


Bm          A      F#m                 G      A        Bm
  Do you remember chalk hearts melting on a playground wall?
            A      F#m                 G        A       Bm
  Do you remember dawn escaped from moonwashed college halls?
            A      F#m                 G     A      Bm
  Do you remember the cherry blossom in the market square?
            A       F#m                G     A      Bm
  Do you remember I thought it was confetti in our hair?
  A          F#m        G   A     Bm
  By the way didn't I break your heart?
            A         F#m             G     A    Bm
  Please excuse me, I never meant to break your heart.
       A      F#m           G      A     Bm   A
  So sorry I never meant to break your heart.
           F#m  G
  But you broke mine.

   D      A/D         G/D              D
  Kayleigh, is it too late to say I'm sorry.
       C                 G        D
  And Kayleigh could we get it together again.
         A/D           G/D  D           C         G       D
  I just can't go on pretending that it came to a natural end.
          A/D    G/D               D
  Kayleigh, oh I never thought I'd miss you,
       C            G              D
  and Kayleigh I'd hoped that we'd always be friends.
              A/D              G/D
  We said our love would last forever,
     D           C       G          D    (Bm A F#m G A) (D A/D G/D D C G D)
  so how did it come to this bitter end.

 (C#m B)

C#m         B      G#m              A        B         C#m
  Do you remember, barefoot on the lawn with shooting stars
            B      G#m            A         B     C#m
  Do you remember, loving on the floor in Belsize Park
            B      G#m            A      B       C#m
  Do you remember, dancing in stilletos in the snow
            B          G#m        A       B       C#m
  Do you remember, you never understood I had to go.
  B             G#m     A    B    C#m
  By the way, didn't I break your heart ?
            B        G#m            A     B    C#m
  Please excuse me I never meant to break your heart
       B       G#m           A          C#m     B
  So sorry, I never meant to break your heart,
      G#m        A
  But you broke mine.

   D      A/D      G/D              D
  Kayleigh, I just want to say I'm sorry,
       C                G        D
  but Kayleigh I'm too scared to pick up the phone.
          A/D                G/D    D        C             G      D
  To have hear you've found another lover to patch up our broken home.
          A/D         G/D                  D
  Kayleigh, I'm still trying to write that love song,
     C                 G          D
  Kayleigh it's more important to me now you're gone.
       A/D               G/D     D
  Maybe it'll prove that we were right
              C         G      D
  Or it will prove that I was wrong.

Solo:

E|------------------------------------------5----------------------------|
B|---x--2--3-----2~--3-----2~--3-----2~--3------x--2--3-----2~--3--------|
G|--x---------4---------4---------4------------x---------4---------4-----|
D|-x------------------------------------------x--------------------------|
A|-----------------------------------------------------------------------|
E|-----------------------------------------------------------------------|

E|---------------------------------------------------------------17------|
B|--2~--3-----------x-14--15-----14~--15-----14~--15-----14~--15---------|
G|----------2~~----x---------16----------16----------16------------------|
D|----------------x------------------------------------------------------|
A|-----------------------------------------------------------------------|
E|-----------------------------------------------------------------------|
                                                     p
E|--------------------------------14--17B(19)---(19)R17_14---------------|
B|---x-14--15----14~--15--17B(19)----------------------------17--17B(19)-|
G|--x---------16---------------------------------------------------------|
D|-x---------------------------------------------------------------------|
A|-----------------------------------------------------------------------|
E|-----------------------------------------------------------------------|
            PM      h                                       h  p h  p
E|-----------------------------------------------7--10B(12)--9_10_9_10_9-|
B|-17--14-----------14_15------------------------------------------------|
G|--------14~----14-------16~----------7--9B(11)-------------------------|
D|------------16------------------7/9------------------------------------|
A|-----------------------------------------------------------------------|
E|-----------------------------------------------------------------------|
                        p               p                   p
E|------------------------------------------------------12--12_10--------|
B|-10--10B(12)-----(12)R10_7-------10~--12_10----10--12-----------12-----|
G|----------------------------9/11------------11-------------------------|
D|-----------------------------------------------------------------------|
A|-----------------------------------------------------------------------|
E|-----------------------------------------------------------------------|
                         p             h  p              PM  h
E|-12--10--12B(14)--(14)R12_10------10--9_10_9----9----------------------|
B|-----------------------------12--------------12---10--------7_10B(12)--|
G|-----------------------------------------------------9/7---------------|
D|---------------------------------------------------------9-------------|
A|-----------------------------------------------------------------------|
E|-----------------------------------------------------------------------|
                             h             h              h       PM-
E|-9-------------9------------9_10~--9~----------------------------------|
B|---10~--7~-------10~--7~--------------10--7_8~--7~---------------------|
G|-----------7~---------------------------------------7----4_5~--4~------|
D|------------------------------------------------------------------5----|
A|--------------------------------------------------------------------5--|
E|-----------------------------------------------------------------------|

E|-------------|
B|-------------|
G|-4-----------|
D|---5/7~------|
A|-------------|
E|-------------|
00:00 / 00:00
Otros videos de esta canción
Repetir
Otros videos de esta canción
Composición de Marillion
Colaboración y revisión:
  • Denis Lopes
  • Fabiano Pimentel
  • henrique hesse
1.000 vistas
    • ½ Tono
    • A
    • Bb
    • B
    • C
    • Db
    • D
    • Eb
    • E
    • F
    • F#
    • G
    • Ab
  • Agregar a la lista

    0 comentarios

    Ver todos los comentarios

    ¿Lograste tocar?

    4 Tocaron 0 Aún no

    ¡Graba un video tocando Kayleigh y envíanoslo!

    00:00 / 00:00
    OK