Cifra Club

Pseudo Silk Kimono

Marillion

Tab de bajo: Principal
Album:  Misplaced childhood
Autor:  Ramondo Kok

I did this song because it fits perfect before Kayleigh, If you play
this song live it would be nice to play this before it
you can,t do the rithem if you dont count because theres no drum

~~~ = let ring
slowly, free time
G||-------|------|------|-------|-------|-----11-|------|--------|
D||-------|------|------|-------|-------|--------|------|--------|
A||-2~~---|------|-2~~~-|-2~~---|-------|-2~~----|-2~~--|--------|
E||-------|-3~~--|------|-------|-3~~---|--------|------|-3~~----|

G|-------|------|------|-------|-------|--------|------||
D|-------|------|------|-------|-------|--------|------||
A|-2~~---|-2~~--|------|-2~~---|-2~~---|--------|-2~~--||
E|-------|------|-3~~--|-------|-------|-3~~----|------||

G||------|-------|---------|------------|--------14--|-12--------|
D||------|-------|-----14--|-----12-----|-16--14-----|--------12-|
A||-2~~--|-------|-12------|-10------10-|------------|----10-----|
E||------|-3~~---|---------|------------|------------|-----------|
     
                     enter vocals:
G|-----------------||-----|-----|---------------|----|-----|-----11-|
D|-----------------||-----|-----|------16-14-16-|-16-|-----|--------|
A|-14-16--12--14~~-||-2~~-|-----|-2~~-----------|----|-10--|-2~~----|
E|-----------------||-----|-3~~-|---------------|----|-----|--------|


G|------|------|-------|-----|------|--------14-|--------|--------------|
D|------|------|-------|-----|------|-----14----|-----12-|-16-14-12-14--|
A|-2~~--|------|-2~~~--|-2~~-|------|-12--------|-10-----|--------------|
E|------|-3~~--|-------|-----|-3~~--|-----------|--------|--------------|

                                          sequel to Kayleigh   
G|--------14--|------------|-------------|----------------|
D|-----14-----|-----12-----|-------11----|----------------|
A|--12--------|-10-----10--|-12-14----12-|-2~~------------|
E|------------|------------|-------------|----------------|

i also made a tab for Kayleigh you can find it here


00:00 / 00:00
Otros videos de esta canción
Repetir
Otros videos de esta canción
Composición de Marillion
43 vistas

0 comentarios

Ver todos los comentarios

¿Lograste tocar?

0 Tocaron 0 Aún no

¡Graba un video tocando Pseudo Silk Kimono y envíanoslo!

00:00 / 00:00
OK