Cifra Club

Great big white world

Marilyn Manson

Cifrado: Principal (guitarra y guitarra eléctrica)
tono: Bb
intro e verso

e)--------------------------------------------------------------------------| 
B)--------------------------------------------------------------------------| 
G)--------------------------------------------------------------------------| 
D)---10----13-12/1312/1312--8-10--13-12-10------------8-------------------| 
A)--------------------------------------------------------------------------| 
E)--------------------------------------------------------------------------| 4x

pré refrão

e|-----------------|-----------------|-----------------|-----------------|
B|---4-3---4-3---4-|---4-3---4-3---4-|---4-3---4-3---4-|---4-3---4-3---4-|
G|-5-----5-----5---|-4-----4-----4---|-3-----3-----3---|-2-----2-----2---|


refrão

e)-------------------------------8b--------------------| 
B)------4-6-6b--4------4-6-6b--4-----------------------| 
G)----5-----------5--5---------------------------------| 
D)-----------------------------------------------------| 
A)-----------------------------------------------------| 
E)-----------------------------------------------------| 4x

pós refrão 1

e)--------------------------------------------------------------------------| 
B)--------------------------------------------------------------------------| 
G)--------------------------------------------------------------------------| 
D)--3----6---10----8----6----5--------------------------| 
A)--3----6---10----8----6----5--------------------------| 
E)--1----4----8----6----4----3--------------------------|

pós refrão 2

e)--------------------------------------------------------------------------| 
B)--------------------------------------------------------------------------| 
G)--------------------------------------------------------------------------| 
D)--3----6---10----8----3----6---10----8----6----5--------------------------| 
A)--3----6---10----8----3----6---10----8----6----5--------------------------| 
E)--1----4----8----6----1----4----8----6----4----3--------------------------| 2x

outro (durante r:2)

e)--------------------------------------------------------------------------| 
B)---8--8/98-8/98-8/98-6-------------------------------------------------| 
G)--------------------------------------------------------------------------| 3x
00:00 / 00:00
Otros videos de esta canción
Repetir
Otros videos de esta canción
Composición de Madonna Wayne Gacy / Marilyn Manson / Twiggy Ramirez / Zim Zum
597 vistas
    • ½ Tono
    • A
    • Bb
    • B
    • C
    • Db
    • D
    • Eb
    • E
    • F
    • F#
    • G
    • Ab
  • Agregar a la lista

    0 comentarios

    Ver todos los comentarios

    ¿Lograste tocar?

    3 Tocaron 0 Aún no

    ¡Graba un video tocando Great big white world y envíanoslo!

    00:00 / 00:00
    OK