Cifra Club

Little Horn

Marilyn Manson

Cifrado: Principal (guitarra y guitarra eléctrica)
tono: F#
This is the awesome 5th song on the Antichrist Superstar album. This song
sounds great and is easy as hell to play. You'll have to tune your guitar
to Dropped D so the order of the strings are like this:  Low to High- D,
A, D, G, B, e


   Intro and Main Riff
e|---------------------------------------------------------------------
B|---------------------------------------------------------------------
G|---------------------------------------------------------------------
D|---3-0-0-3-0-0-3-0-0-3-0-0-3-0-5---3-0-0-3-0-0-3-0-0-3-0-0-6-5-3-----
A|---3-0-0-3-0-0-3-0-0-3-0-0-3-0-5---3-0-0-3-0-0-3-0-0-3-0-0-6-5-3-(x6)
D|---3-0-0-3-0-0-3-0-0-3-0-0-3-0-5---3-0-0-3-0-0-3-0-0-3-0-0-6-5-3-----


Riff 2(This part is being played when he is singing, Little Horn Is Born)

e|---------------------------------------------
B|---------------------------------------------
G|---------------------------------------------
D|---6-6-6-6-6-6-6-6-6-6-6-6-6-5-3-0-----------
A|---6-6-6-6-6-6-6-6-6-6-6-6-6-5-3-0-------(x4)
D|---6-6-6-6-6-6-6-6-6-6-6-6-6-5-3-0-----------


Chorus (This is when he sings, World Spreads It's Legs For Another Star ......etc)

e|-------------------------------------------------------------
B|-------------------------------------------------------------
G|-------------------------------------------------------------
D|---0-6-5-3-5-3-1-3-0-0-3-0-0-3-0-0-3-0-0-3-0-5---------------
A|---0-6-5-3-5-3-1-3-0-0-3-0-0-3-0-0-3-0-0-3-0-5-----------(x2)
D|---0-6-5-3-5-3-1-3-0-0-3-0-0-3-0-0-3-0-0-3-0-5---------------


Main Riff Again

e|---------------------------------------------------------------------
B|---------------------------------------------------------------------
G|---------------------------------------------------------------------
D|---3-0-0-3-0-0-3-0-0-3-0-0-3-0-5---3-0-0-3-0-0-3-0-0-3-0-0-6-5-3-----
A|---3-0-0-3-0-0-3-0-0-3-0-0-3-0-5---3-0-0-3-0-0-3-0-0-3-0-0-6-5-3-(x2)
D|---3-0-0-3-0-0-3-0-0-3-0-0-3-0-5---3-0-0-3-0-0-3-0-0-3-0-0-6-5-3-----

Riff 2 again

e|---------------------------------------------
B|---------------------------------------------
G|---------------------------------------------
D|---6-6-6-6-6-6-6-6-6-6-6-6-6-5-3-0---
A|---6-6-6-6-6-6-6-6-6-6-6-6-6-5-3-0---(x4)
D|---6-6-6-6-6-6-6-6-6-6-6-6-6-5-3-0---


Chorus again

e|-------------------------------------------------------------
B|-------------------------------------------------------------
G|-------------------------------------------------------------
D|---0-6-5-3-5-3-1-3-0-0-3-0-0-3-0-0-3-0-0-3-0-5---------------
A|---0-6-5-3-5-3-1-3-0-0-3-0-0-3-0-0-3-0-0-3-0-5-----------(x2)
D|---0-6-5-3-5-3-1-3-0-0-3-0-0-3-0-0-3-0-0-3-0-5---------------


Riff 3 (It goes into that really fast-sounding part after the 2nd run through the Chorus)

e|---------------------------------------------------------------
B|---------------------------------------------------------------
G|----------------------5-5-5------------------------------------
D|---6-6-6-5-5-5-3-3-3--5-5-5--0-0-0-0--(x4)-(Ends on this chord)
A|---6-6-6-5-5-5-3-3-3--3-3-3--0-0-0-0---------------------------
D|---6-6-6-5-5-5-3-3-3---------0-0-0-0---------------------------


Main Riff again

e|---------------------------------------------------------------------
B|---------------------------------------------------------------------
G|---------------------------------------------------------------------
D|---3-0-0-3-0-0-3-0-0-3-0-0-3-0-5---3-0-0-3-0-0-3-0-0-3-0-0-6-5-3-----
A|---3-0-0-3-0-0-3-0-0-3-0-0-3-0-5---3-0-0-3-0-0-3-0-0-3-0-0-6-5-3-(x4)
D|---3-0-0-3-0-0-3-0-0-3-0-0-3-0-5---3-0-0-3-0-0-3-0-0-3-0-0-6-5-3-----




Chorus one last time

e|------------------------------------------------------------
B|------------------------------------------------------------
G|------------------------------------------------------------
D|---0-6-5-3-5-3-1-3-0-0-3-0-0-3-0-0-3-0-0-3-0-5--------------
A|---0-6-5-3-5-3-1-3-0-0-3-0-0-3-0-0-3-0-0-3-0-5----------(x2)
D|---0-6-5-3-5-3-1-3-0-0-3-0-0-3-0-0-3-0-0-3-0-5--------------

That's it for that song, it's pretty simple to play. I hope you enjoy it.
If you have any questions, comments, corrections, or whatever e-mail me at

 
00:00 / 00:00
Otros videos de esta canción
Repetir
Otros videos de esta canción
Composición de Marilyn Manson
40 exhibiciones
    • ½ Tono
    • A
    • Bb
    • B
    • C
    • Db
    • D
    • Eb
    • E
    • F
    • F#
    • G
    • Ab
  • Agregar a la lista
    00:00 / 00:00
    OK