Cifra Club

Rock Is Dead

Marilyn Manson

Cifrado: Principal (guitarra y guitarra eléctrica)
tono: G
(): harmaonics 

Riff 
e------------------------------------------------------- 
B------------------------------------------------------- 
G------------------------------------------------------- 
D-4-4-(4)--x-4-4-(4)--x-4-4-(4)--x-4-4-7---------------- 
A-4-4-(4)--x-4-4-(4)--x-4-4-(4)--x-4-4-7---------------- 
E-2-2-(2)--x-2-2-(2)--x-2-2-(2)--x-2-2-5---------------- 

Bass-Verse 
G------------------------------------------------------- 
D----------------------------4^-2----------------------- 
A---------------------------------4--------------------- 
E-2-2-2-2-2-2-2-5--2-2-2-2-2---------------------------- 
("All simple monkeys...") 

Pre-Chorus A (Guitar 1)           B (Guitar 2) 
e--------------------------------|----------------12^--- 
B--------------------------------|-13---12---10--------- 
G-2-----5----7-----2-----5----7--|---------------------- 
D-2-----5----7-----2-----5----7--|---------------------- 
A-0-----3----5-----0-----3----5--|---------------------- 
E--------------------------------|---------------------- 
("Anything to belong...") 

Chorus A (Guitar 1) 
e------------------------------------------------------- 
B------------------------------------------------------- 
G-11--9-11-9---11--9-11-9---9--7-9-7---9--7-9-7--------- 
D-11--9-11-9---11--9-11-9---9--7-9-7---9--7-9-7--------- 
A--9--7--9-7----9--7--9-7---7--5-7-5---7--5-7-5--------- 
E------------------------------------------------------- 
("Rock is deader than dead...") 

(continued) 
e------------------------------------------------------- 
B------------------------------------------------------- 
G-7--6-7-6---7--6-7-6--6-6-6-6-6-6-6-6--9-9-9-9-9-9-9-9- 
D-7--6-7-6---7--6-7-6--6-6-6-6-6-6-6-6--9-9-9-9-9-9-9-9- 
A-5--4-5-4---5--4-5-4--4-4-4-4-4-4-4-4--7-7-7-7-7-7-7-7- 
E------------------------------------------------------- 

Post-Chorus                Fill 
e-----------8--------7----|----------------------------- 
B----------10--------8----|----------------------------- 
G-11--------9--------9----|----------------------------- 
D-11--------7--------9----|--(7)-(7)-(7)-(7)-(7)-(7)---- 
A--9-----------------7----|--(7)-(7)-(7)-(7)-(7)-(7)---- 
E-------------------------|--(5)-(5)-(5)-(5)-(5)-(5)---- 
("God is in the tv...") 

Bridge 
e------------------------------------------------------- 
B------------------------------------------------------- 
G------------------------------------------------------- 
D---(4)-----(4)-----(4)-----(4)-----(4)-----(4)--------- 
A---(4)-----(4)-----(4)-----(4)-----(4)-----(4)--------- 
E---(2)-----(2)-----(2)-----(2)-----(2)-----(2)--------- 
("Rock...") 

Chorus B 
e-12--14-12-14-12--14-12-17^--12--14-12-14-12--14-12-17^ 
B------------------------------------------------------- 
G------------------------------------------------------- 
D------------------------------------------------------- 
A------------------------------------------------------- 
E------------------------------------------------------- 

Riff 
Bass-Verse 
Pre-Chorus A 
Chorus A 
Post-Chorus 
Riff 
Fill 
Bass-Verse 
Pre-Chorus A, B 
Chorus A 
Post-Chorus 
Bridge 
Chorus B, Riff 
Pre-Chorus A, B 
Chorus A, B
00:00 / 00:00
Otros videos de esta canción
Repetir
Otros videos de esta canción
Composición de Madonna Wayne Gacy / Marilyn Manson / Twiggy Ramirez
Colaboración y revisión:
  • Álvaro Paiva
759 exhibiciones
    • ½ Tono
    • A
    • Bb
    • B
    • C
    • Db
    • D
    • Eb
    • E
    • F
    • F#
    • G
    • Ab
  • Agregar a la lista
    00:00 / 00:00
    OK