Cifra Club

Sweet Dreams

Marilyn Manson

Cifrado: Principal (guitarra y guitarra eléctrica)
Selo Cifra Club: esta cifra foi revisada para atender aos critérios oficiais da nossa Equipe de Qualidade.
tono: A
[Intro]
  
E|-----------------------------------|
B|-----------------------------------|
G|-----------------------------------|
D|------5---6---5--------------------|
A|--3-3---3---3---3-----6/8-----5/6--|
E|------------------4-4-----3-3------|

Sweet dreams are made of this
Who am I to disagree?
Travel the world and the seven seas
Everybody's looking for something

Some of them want to use you
Some of them want to get used by you
Some of them want to abuse you
Some of them want to be abused
Sweet dreams are made of this

E|---------------------------------------------------------------------------------------|
B|---------------------------------------------------------------------------------------|
G|---------------------------5-----------------------------------------------------------|
D|--6------------5-----------5-(8-v| ezes)-6-----------5-----------6-----------6-----------|
A|--6-(13-v| ezes)-5-(3-vezes)-3-----------6-(7-vezes)-5-(1-vezes)-6-(8-vezes)-6-(9-vezes)-|
E|--4------------3-----------------------4-----------3-----------4-----------5-----------|

Wah Wah

E|-----------------------------------|
B|-----------------------------------|
G|-----------------------------------|
D|------5---6---5--------------------|
A|--3-3---3---3---3-----6/8-----5/6~-|
E|------------------4-4-----3-3------|

Sweet dreams are made of this
Who am I to disagree?
Travel the world and the seven seas
Everybody´s looking for something

Some of them want to use you
Some of them want to get used by you
Some of them want to abuse you
Some of them want to be abused.

[Solo]

E|------------11---------------------------------------------------------------------11-14b-----|
B|-6/11-11-13----11-13---------------------------------------------------------13-11--------13--|
G|---------------------11b13r11---------------------------------------------10------------------|
D|------------------------------10-8-10----------------------10-10-10/12/13---------------------|
A|--------------------------------------9-9-9b11-9b11-----8-------------------------------------|
E|----------------------------------------------------8-8---------------------------------------|

I want to use you and abuse you
I want to know what's inside you
(Whispering) Hold your head up, movin' on
Keep your head up, movin' on
Hold your head up, movin' on
Keep your head up, movin' on
Hold your head up, movin' on
Keep your head up, movin' on
Movin' on!

[Solo Final]

E|---------------|---------------|-------------------|
B|---------------|---------------|-5-----5-5-5-7b-5-5|
G|-5-----5-5-5-7b| 5-----5-5-5-6b-|--8-8-8----------8-|
D|--8-8-8--------|-8-8-8---------|-------------------|
A|---------------|---------------|-------------------|
E|---------------|---------------|-------------------|

E|-8-8-10b--8-8-13b|-8-----8-8-8-10b-|-13b----|
B|--11-------11----|--11-11----------|-----7~-|
G|-----------------|-----------------|--------|
D|-----------------|-----------------|--------|
A|-----------------|-----------------|--------|
E|-----------------|-----------------|--------|

Sweet dreams are made of this
Who am I to disagree?
Travel the world and the seven seas
Everybody's looking for something
Some of them want to use you
Some of them want to get used by you
Some of them want to abuse you
Some of them want to be abused
I'm gonna use you and abuse you
I'm gonna know what's inside
Gonna use you and abuse you
I'm gonna know what's inside you
Otros videos de esta canción
    698.640 exhibiciones
      • ½ Tono
      • A
      • Bb
      • B
      • C
      • Db
      • D
      • Eb
      • E
      • F
      • F#
      • G
      • Ab
    • Agregar a la lista

    Afinación de cifrado

    Afinador online

      OK