Cifra Club

The dope show

Marilyn Manson

Cifrado: Principal (guitarra y guitarra eléctrica)
Selo Cifra Club: esta cifra foi revisada para atender aos critérios oficiais da nossa Equipe de Qualidade.
tono: G
Baixo-Verso
G------------------------------------------------------
D------------------------------------------------------
A----------------------5---3---3--3-2------------------
E-0---0---0---0-3^-0-----------------------------------
("The drugs they say...")
 
Refrão A (Guitarra 1)
e------------------------------------------------------
B------------------------------------------------------
G-9------12--------------------------------------------
D-9-(x8)-12-(x8)-12-(x8)-10-(x7)-9---------------------
A-7------10------12------10------9---------------------
E----------------10-------8------7---------------------
("There's lots of pretty, pretty ones...")
 
Verso (Guitarra 1)
e------------12---------12--------------12---12--------
B---12-10---------10-12--------12-10------------12-10--
G-9-------9------------------9-------9-----------------
D------------------------------------------------------
A------------------------------------------------------
E------------------------------------------------------
 
Pré-Refrão (Guitarra 1)    Riff (Guitarra 2)
e-----------------------|------------------------------
B-----------------------|------------------------------
G-----------------------|-9---7---5--------------------
D-----------------------|-9---7---5---5----------------
A-5/7--7-5-7--7--7-5-7--|-7---5---3---5----------------
E-----------------------|-------------3----------------
("They love you when...")
*O Riff é tocado na última repetição do Pré-Refrão
 
Refrão B (Guitarra 2)
e------------------------------------------------------
B------------------------------------------------------
G---------7-9----------7-9-----------------------------
D-7^-\5---------7^-\5----------------------------------
A------------------------------------------------------
E------------------------------------------------------
 
Refrão C (Guitarra 1)
e------------------------------------------------------
B------------------------------------------------------
G-----------------7-------5------4---------------------
D-2-(x8)--5-(x8)--7-(x8)--5-(x7)-4---------------------
A-2-------5-------5-------3------2---------------------
E-0-------3--------------------------------------------
 
Outro (Guitarra 1)
e------------------------------------------------------
B------------------------------------------------------
G------------------------------------------------------
D------------------------------------------------------
A---------------------5-5--3--3-2----------------------
E-0---0---0---0-3^-0-----------------------------------
 
Baixo-Verso
Refrão A
Baixo-Verso, Verso
Pré-Refrão, Refrão
Baixo-Verso
Refrão A
Baixo-Verso, Verso
Pré-Refrão, Riff
Refrão A, B
Refrão B, C
Baixo-Verso, Verso
Baixo-Verso, Outro
 
Letra
“Manson”
 
The drugs they say
To make us feel so hollow
We love in vain
Narcissistic and so shallow
The cops and queers
To swim you have to swallow
Hate today
No love for tomorrow
 
We're all stars now in the dope show
 
There's lots of pretty, pretty ones
That wanna get you high
But all the pretty, pretty ones
Will leave You low
And blow your mind
 
We're all stars now in the dope show
 
They love you when you're on all the covers
When you're not then they love another
 
The drugs they say
Are made in California
We love your face
We'd really like to sell you
The cops and queers
Make good-looking models
I hate today
Who whill I wake up with tomorrow.
 
There's lots of pretty, pretty ones
That wanna get you high
But all the pretty, pretty ones
Will leave you low
And blow your mind
 
They love you when you're on all the covers
When you're not then they love another
 
We're all stars now in the dope show...
 
 
00:00 / 00:00
Otros videos de esta canción
Repetir
Otros videos de esta canción
18.110 exhibiciones
    • ½ Tono
    • A
    • Bb
    • B
    • C
    • Db
    • D
    • Eb
    • E
    • F
    • F#
    • G
    • Ab
  • Agregar a la lista

Afinación de cifrado

Afinador online

    00:00 / 00:00
    OK