Cifra Club

The Nobodies

Marilyn Manson

Cifrado: Principal (guitarra y guitarra eléctrica)
tono: C
Essa é versão de estúdio que está no cd.

Riff 1 na verdade feito pelo teclado mas na guitarra ficara indentico,vai repetindo atè o refrao...

E --------------------------------------------------------------------------------|
B -1---1---1---1---1----1----1----1-------------1--------1-------------------|
G ---2---2---2---2----2----2----2----2-------------1--------1---------------| 
D --------------------------------------------------------2--------2------------|
A --------------------------------------------0----------------------------------|
E --------------------------------------------------------------------------------|


Principal:
   A     C   Em    A         G

G|------*5------------------------|

D|-*7---*5---*2---7-7-7-7-5-5-5-5-|

A|-*7---*3---*2---7-7-7-7-5-5-5-5-|

E|-*5--------*0---5-5-5-5-3-3-3-3-|



Ponte: ("Some children died the other day..")


G|---------------------------|

D|-*7-*3-*7-*3-*7-*3-*7-*3-2-|

A|-*7-*3-*7-*3-*7-*3-*7-*3-2-|  *Toque cada nota 8 vezes

E|-*5-*1-*5-*1-*5-*1-*5-*1-0-|



Termine tocando com wahwah:



E|-5-|

B|---|
00:00 / 00:00
Otros videos de esta canción
Repetir
Otros videos de esta canción
Composición de Marilyn Manson
Colaboración y revisión:
  • Waldemar Júnior
1.008 vistas
    • ½ Tono
    • A
    • Bb
    • B
    • C
    • Db
    • D
    • Eb
    • E
    • F
    • F#
    • G
    • Ab
  • Agregar a la lista

    0 comentarios

    Ver todos los comentarios

    ¿Lograste tocar?

    5 Tocaron 0 Aún no

    ¡Graba un video tocando The Nobodies y envíanoslo!

    00:00 / 00:00
    OK