Cifra Club

Mario and Luigi: Partners in Time - Toad Town

Mario Bros

Cifrado: Principal (guitarra y guitarra eléctrica)
tono: D
E A D G B E

|----------|----------|----------|------|
|----------|----------|----------|------|
|----------|----------|----------|------|
|----------|----------|----------|------|
|----------|----------|----------|------|
|----------|----------|----------|------|

|----4-2-4----|-(4)--5-7-5------|--------------|-----------------|
|-------------|--------------7--|-9---7-5-4----|-(4)--5-7-9--7-5-|
|-------------|-----------------|--------------|-----------------|
|-------------|-----------------|--------------|-----------------|
|-------------|-----------------|--------------|-----------------|
|-------------|-----------------|--------------|-----------------|

|-------------|--------------|--------------|----------------|
|-------------|--------4--5--|-4--2--(2)----|-(2)----(2)-----|
|-6----(6)----|----5-6-------|--------------|----------------|
|-------------|--------------|--------------|----------------|
|-------------|--------------|--------------|----------------|
|-------------|--------------|--------------|----------------|

|-----4-2-4---------|-(4)----5--7--9---7--5-|
|-2-----------------|-----------------------|
|-------------------|-----------------------|
|-------------------|-----------------------|
|-------------------|-----------------------|
|-------------------|-----------------------|

|---------9---16-14-|-16--------------------|
|-------------------|-------14-16-17--16-14-|
|-------------------|-----------------------|
|-------------------|-----------------------|
|-------------------|-----------------------|
|-------------------|-----------------------|

|--4----2--4-------|-----------------------|
|-------------2----|--(2)---4--5--7---5--4-|
|------------------|-----------------------|
|------------------|-----------------------|
|------------------|-----------------------|
|------------------|-----------------------|

|-12---11-12-------|-----------------------|
|------------------|-------13-14-16--14-13-|
|------------13----|-(13)------------------|
|------------------|-----------------------|
|------------------|-----------------------|
|------------------|-----------------------|

|---------------|---------------2--|------------------|------------------|
|--2-----(2)----|-----1--2--4------|-5--4--2---(2)----|--(2)-----(2)-----|
|---------------|------------------|------------------|------------------|
|---------------|------------------|------------------|------------------|
|---------------|------------------|------------------|------------------|
|---------------|------------------|------------------|------------------|

|---------------|--------------11--|-9-14-12--(12)----|-(12)----(12)-----|
|---------------|-------11-13------|------------------|------------------|
|-13----(13)----|----13------------|------------------|------------------|
|---------------|------------------|------------------|------------------|
|---------------|------------------|------------------|------------------|
|---------------|------------------|------------------|------------------|

|----------|----------|----4-2-4----|-(4)--5-7-5------|
|----------|----------|-------------|--------------7--|
|----------|----------|-------------|-----------------|
|----------|----------|-------------|-----------------|
|----------|----------|-------------|-----------------|
|----------|----------|-------------|-----------------|

|--------------|-----------------|-------------|--------------|
|-9---7-5-4----|-(4)--5-7-9--7-5-|-------------|--------4--5--|
|--------------|-----------------|-6----(6)----|----5-6-------|
|--------------|-----------------|-------------|--------------|
|--------------|-----------------|-------------|--------------|
|--------------|-----------------|-------------|--------------|

|--------------|----------------|-----4-2--4---------|-(4)----5--7--9---7--5-|
|-4--2--(2)----|-(2)----(2)-----|-2------------------|-----------------------|
|--------------|----------------|--------------------|-----------------------|
|--------------|----------------|--------------------|-----------------------|
|--------------|----------------|--------------------|-----------------------|
|--------------|----------------|--------------------|-----------------------|

|--------------|----------------|--------------16-14-|-16--------------------|
|--------------|----------------|---------14---------|-------14-16-17--16-14-|
|--------------|----------------|--------------------|-----------------------|
|--------------|----------------|--------------------|-----------------------|
|--------------|----------------|--------------------|-----------------------|
|--------------|----------------|--------------------|-----------------------|

|--4----2--4-------|-----------------------|---------------|---------------2--|
|-------------2----|--(2)---4--5--7---5--4-|--2-----(2)----|-----1--2--4------|
|------------------|-----------------------|---------------|------------------|
|------------------|-----------------------|---------------|------------------|
|------------------|-----------------------|---------------|------------------|
|------------------|-----------------------|---------------|------------------|

|-12---11-12-------|-----------------------|---------------|--------------11--|
|------------------|-------13-14-16--14-13-|---------------|-------11-13------|
|------------13----|-(13)------------------|-13----(13)----|----13------------|
|------------------|-----------------------|---------------|------------------|
|------------------|-----------------------|---------------|------------------|
|------------------|-----------------------|---------------|------------------|

|------------------|------------------|----------|------|
|-5--4--2---(2)----|--(2)-----(2)-----|----------|------|
|------------------|------------------|----------|------|
|------------------|------------------|----------|------|
|------------------|------------------|----------|------|
|------------------|------------------|----------|------|

|-9-14-12--(12)----|-(12)----(12)-----|----------|------|
|------------------|------------------|----------|------|
|------------------|------------------|----------|------|
|------------------|------------------|----------|------|
|------------------|------------------|----------|------|
|------------------|------------------|----------|------|

|----------|----------|----------|------|
|----------|----------|----------|------|
|----------|----------|----------|------|
|----------|----------|----------|------|
|----------|----------|----------|------|
|----------|----------|----------|------|

|----------|----------|------*|
|----------|----------|------*|
|----------|----------|------*|
|----------|----------|------*|
|----------|----------|------*|
|----------|----------|------*|
Compositor não encontrado.
61 vistas
    • ½ Tono
    • A
    • Bb
    • B
    • C
    • Db
    • D
    • Eb
    • E
    • F
    • F#
    • G
    • Ab
  • Agregar a la lista

    0 comentarios

    Ver todos los comentarios

    ¿Lograste tocar?

    0 Tocaron 0 Aún no

    ¡Graba un video tocando Mario and Luigi: Partners in Time - Toad Town y envíanoslo!

    00:00 / 00:00
    Outros vídeos desta música
    Repetir Calidad Automático
    Outros vídeos desta música
    00:00 / 00:00
    Automático
    OK