Cifra Club

New Super Mario Bros - Walking The Plains

Mario Bros

Cifrado: Principal (guitarra y guitarra eléctrica)
tono: A
E |-------------------|-------------------|-------------------|
B |-------------------|-------------------|-------------------|
G |-------------------|-------------------|-------------------|
D |-------------------|-------------------|-------------------|
A |-------------------|-------------------|-------------------|
E |-------------------|-------------------|-------------------|

-------------------|-------------------|-----0--1-3--5----0----3----4-5----|
-------------------|-------------------|-----------------------------------|
-------------------|-------------------|-----------------------------------|
-------------------|-------------------|-----------------------------------|
-------------------|-------------------|-----------------------------------|
-------------------|-------------------|-----------------------------------|

----------3--5----7----7----6-5----|--------0-1--3---------1---2-3----|
-----5--6--------------------------|-----3------------3---------------|
-----------------------------------|----------------------------------|
-----------------------------------|----------------------------------|
-----------------------------------|----------------------------------|
-----------------------------------|----------------------------------|

--------0-1--3----5----5----4-3----|-----0--1-3--5----0----3----4-5----|
-----3-----------------------------|-----------------------------------|
-----------------------------------|-----------------------------------|
-----------------------------------|-----------------------------------|
-----------------------------------|-----------------------------------|
-----------------------------------|-----------------------------------|

------------3--5--6--5---------4-|----5--7-8--10-------7--8-10----8----10---|
------5--6-----------------------|------------------10----------------------|
---------------------------------|------------------------------------------|
---------------------------------|------------------------------------------|
---------------------------------|------------------------------------------|
---------------------------------|------------------------------------------|

----12---12---------------------------------|
-------------13----------12-12---10----9-10-|
-------------------12-----------------------|
--------------------------------------------|
--------------------------------------------|
--------------------------------------------|

------7-8--10-------7--8-10----12-------|-----------------------|
--L-L------10----10------------------13-|--L------L-------------|
----------------------------------------|-----------------------|
----------------------------------------|-----------------------|
----------------------------------------|-----------------------|
----------------------------------------|-----------------------|

-------0--1-3--5----0----3----4-5------|------------3--5----7----7----6-5------|
---------------------------------------|-------5--6----------------------------|
---------------------------------------|---------------------------------------|
---------------------------------------|---------------------------------------|
---------------------------------------|---------------------------------------|
---------------------------------------|---------------------------------------|

----------0-1--3---------1---2-3------|----------0-1--3----5----5----4-3------|
-------3------------3-----------------|-------3-------------------------------|
--------------------------------------|---------------------------------------|
--------------------------------------|---------------------------------------|
--------------------------------------|---------------------------------------|
--------------------------------------|---------------------------------------|

-------0--1-3--5----0----3----4-5------|------------3--5--6--5---------4-|
---------------------------------------|------5--6-----------------------|
---------------------------------------|---------------------------------|
---------------------------------------|---------------------------------|
---------------------------------------|---------------------------------|
---------------------------------------|---------------------------------|

--5--7-8--10-------7--8-10----8----10---|
----------------10----------------------|
----------------------------------------|
----------------------------------------|
----------------------------------------|
----------------------------------------|

--12---12--------------------------------|
-----------13----------12-12---L-10----9-|
-----------------12----------------------|
-----------------------------------------|
-----------------------------------------|
-----------------------------------------|

--------7-8--10-------7--8-10----12---L--L-|--------------------------|
--L-10-------10----10----------------------|----13------L-------------|
-------------------------------------------|--------------------------|
-------------------------------------------|--------------------------|
-------------------------------------------|--------------------------|
-------------------------------------------|--------------------------|

--15--17----------------------------------------------|
--16--17----16-17-------------------------------------|
------------16-17-------------------------------------|
---------------------17--19-------------19--17--------|
---------------------18--19----18-19----19--19-19--15-|
-------------------------------19-20-----------20--15-|

-----------------------------------------|
-----------------------------------------|
---------12---------12--------12---------|
---------12---------12--------12---------|
--13--14-----13-14-----13--14------------|
--14--15-----14-15-----14--15------------|

--13--15----------------------------------------------|
--14--15----14-15-------------------------------------|
------------15-16----15--16-------------16------------|
---------------------16--17----16-17----17--17-15--15-|
-------------------------------16-17--------20-17--15-|
------------------------------------------------------|

-----------------------------------------|
-----------------------------------------|
---------14---------14--------14---------|
--13--14-14--13-14--14-13--14-14---------|
--14--14-----14-14-----14--14------------|
-----------------------------------------|

--15--17----------------------------------------------|
--16--17----16-17-------------------------------------|
------------16-17-------------------------------------|
---------------------17--19--------------------17-----|
---------------------18--19----18-19----18--19-19--19-|
-------------------------------19-20----19--20-----20-|

--20--22-----------------------------20-|
--21--22----21-22--------------------22-|
------------21-22----21--22--------L----|
---------------------21--22--------L----|
----------------------------------------|
----------------------------------------|

--L-L-22-------------20--22-------------20--22--------20-|
--L-L-22----22-22----22--22----22-22----22--22-22--22-20-|
------------21-22--------------21-22-----------21--22----|
---------------------------------------------------------|
---------------------------------------------------------|
---------------------------------------------------------|

--L-L-22-----------20--22-------------20--22-----------|
--L-L-22---20-22---20--22----20-22----20--22-20--22----|
-----------21-22-------------21-22-----------21--22-20-|
----------------------------------------------------22-|
-------------------------------------------------------|
-------------------------------------------------------|

-------------------------------------------------------------|
---------22---------22--------22---------20------------------|
--L-L-21-21--20-21--21-20--21-21--20-21--21-20--21--------17-|
--L-L-22-----22-22-----22--22-----22-22---------22-22--19----|
--------------------------------------------22-----20-----19-|
-------------------------------------------------------20----|

Compositor não encontrado.
175 vistas
    • ½ Tono
    • A
    • Bb
    • B
    • C
    • Db
    • D
    • Eb
    • E
    • F
    • F#
    • G
    • Ab
  • Agregar a la lista

    0 comentarios

    Ver todos los comentarios

    ¿Lograste tocar?

    0 Tocaron 1 Aún no

    ¡Graba un video tocando New Super Mario Bros - Walking The Plains y envíanoslo!

    00:00 / 00:00
    Outros vídeos desta música
    Repetir Calidad Automático
    Outros vídeos desta música
    00:00 / 00:00
    Automático
    OK