Cifra Club

3 Days Ago

Mario Winans

Cifrado: Principal (guitarra y guitarra eléctrica)
tono: G
Tuning: EADGBE 
Tabber's note:  
The lyrics for the bridge are up for debate (and are probably wrong). Also, that Em chord 
thingy was the closest thing that sounded like the last chord in the bridge. That could 
use some improvement. Otherwise, enjoy the song and the tab! 
 
{Intro} 
e|-----15-------12--------12-------10-------10-----8-------------| 
B|--13----13-12--------11----11-10--------8----8-8-------8----7--| 
G|---------------------------------------------------------------| 
D|---------------------------------------------------------------| 
A|---------------------------------------------------------------| 
E|---------------------------------------------------------------| 
 
{Verse} 
e|----10-----7-----5-----5-7----10-----7-----5-----5-7-----------| 
B|--8----8-7---7-3---3-5------8----8-7---7-3---3-5---------------| 
G|---------------------------------------------------------------| 
D|---------------------------------------------------------------| 
A|---------------------------------------------------------------| 
E|---------------------------------------------------------------| 
 
e|-----15-------12--------12-------10-------10-----8-------------|
Composición de Lo Down / Mario Winans / Tony Aliperti
10 vistas
    • ½ Tono
    • A
    • Bb
    • B
    • C
    • Db
    • D
    • Eb
    • E
    • F
    • F#
    • G
    • Ab
  • Agregar a la lista

    0 comentarios

    Ver todos los comentarios

    ¿Lograste tocar?

    0 Tocaron 0 Aún no

    ¡Graba un video tocando 3 Days Ago y envíanoslo!

    00:00 / 00:00
    Outros vídeos desta música
    Repetir Calidad Automático
    Outros vídeos desta música
    00:00 / 00:00
    Automático
    OK