Cifra Club

Tema Mario(acustico)

Mario

Tablatura: Principal (guitarra)
Tom: C
Intro:
|-7-7---7------7---10-------------|
|--------------8------------------|
|---------------------------7-----|
|---------------------------------|
|---------------------------------|
|---------------------------------|

Part 1
|----------------------------------------10--12---8-10--------------------|
|-8------------------7-------------12-------------------12---8-10-7-------|
|------7--------9------10-9---7-------------------------------------------| x 2
|-----------9-------------------------------------------------------------|
|-------------------------------------------------------------------------|
|-------------------------------------------------------------------------|

Part 2
|-10-9-8------7-------------------------10-9-8-----------15---15-15-------|
|----------11--------------8------8-10------------11---12-----------------|
|--------------------8-9------9-------------------------------------------|
|-------------------------------------------------------------------------|
|-------------------------------------------------------------------------|
|-------------------------------------------------------------------------|

|-10-9-8------7------------------------------------------------------------|
|----------11--------------8------8-10---11-----10-----8-------------------|
|--------------------8-9------9--------------------------------------------|
|--------------------------------------------------------------------------|
|--------------------------------------------------------------------------|
|--------------------------------------------------------------------------|

Part 3
|------------------------------------------------------------------|
|-8-8---8---8-10---12-8-----------8-8---8---8-10-12----------------|
|------------------------------9-7---------------------------------|
|------------------------------------------------------------------|
|------------------------------------------------------------------|
|------------------------------------------------------------------|

|------------------------------------|
|-8-8---8---8-10---12-8--------------|
|------------------------------9-7---|
|------------------------------------|
|------------------------------------|
|------------------------------------|
Repeat from intro but exchange part 2 to part 4

Part 4
|-7-------------------8---8----------12--12--12--10-8-7------------------|
|----8-----------------------------7-----------------------8-------------|
|---------7---8---9---------9-------------------------------9-7----------|
|------------------------------------------------------------------------|
|------------------------------------------------------------------------|
|------------------------------------------------------------------------|

|-7-------------------8---8----------8--8--8--7--------------------------|
|----8-----------------------------7------------------10--8--------------|
|---------7---8---9---------9--------------------------------------------|
|------------------------------------------------------------------------|
|------------------------------------------------------------------------|
|------------------------------------------------------------------------|

Here is the Underground Theme,
I advice you to play legato on the realy fast notes.

|---------------------------------------------|
|---------------------------------------------|
|----12----9----10----------12----9----10-----|
|---------------------------------------------|
|-10----7----8----------10----7----8----------|
|---------------------------------------------|

|---------------------------------------------|
|---------------------------------------------|
|---10---7---8-----------10---7---8-----------|
|---------------------------------------------|
|-8----5---6-----------8----5---6-------------|
|---------------------------------------------|

|--------------------654----------------------|
|-----------------765----4--------------------|
|-8765-8-7-----6-5---------4------------------|
|----------6-5---------------8-7-6------------|
|---------------------------------------------|
|---------------------------------------------|
Repeat from beginning


The Song For The Waterworlds.

|-----------------------------------------------------------|
|--------------8---10---11---7-7-7---7---7-----------8------|
|-7---9---11------------------------------------------------|
|-----------------------------------------------------------|
|-----------------------------------------------------------|
|-----------------------------------------------------------|

|-7------11------7-----------8-10-7------11---8-7-----------|
|----------------------8-10-7-------------------------------|
|--------------------------------------------------------7--|
|-----------------------------------------------------------|
|-----------------------------------------------------------|
|-----------------------------------------------------------|

|--------------------------------------------------8-7----------|
|-10------9------10------------8-9-10---------------------------|
|----------------------7-9-11---------------7-------------7-----|
|---------------------------------------------------------------|
|---------------------------------------------------------------|
|---------------------------------------------------------------|

|-10----10----10----10-12---10-8----8-----8----8-10---8------|
|------------------------------------------------------------|
|------------------------------------------------------------|
|------------------------------------------------------------|
|------------------------------------------------------------|
|------------------------------------------------------------|

|-----------8---7-7-7------------------------|
|------7-------------------7-8---------------|
|-9------------------------------------------|
|--------------------------------------------|
|--------------------------------------------|
|--------------------------------------------|
reproducciones 40
Acordes para:
    Composição: Nintendo Colaboración y revision:
    • arthur d'avila

    0 comentarios

    mostrar más comentarios

    ¿Conseguiste tocar?

    0 tocaron 0 aún no

    ¡Graba un vídeo tocando Tema Mario(acustico) y envianoslo!

    00:00 / 00:00
    outros vídeos desta música
    repetir qualidade Automático
    Outros vídeos desta música
    00:00 / 00:00
    Automático
    OK