Cifra Club

Aprenda

Ainda Bem

Marisa Monte

Tablatura: Simplificada (guitarra)
Tom: F
(primeira parte)

       Dm
Ainda bem
                       Bb/D
Que agora encontrei você
                  C
Eu realmente não sei
                      Dm    A7
O que eu fiz pra merecer você

            Dm
Porque ninguém
               Bb/D
Dava nada por mim
                          C
Quem dava, eu não tava a fim
              Dm     A7
Até desacreditei de mim

(ritmo primeira parte)

 Dm
E|---1---1------1---1-----------------------|
B|---3---3------3---3-----------------------|
G|---2---2------2---2-----------------------|
D|-0---0---0--0---0---0---------------------|
A|------------------------------------------|
E|------------------------------------------|

 Bb/D
E|---1---1------1---1-----------------------|
B|---3---3------3---3-----------------------|
G|---3---3------3---3-----------------------|
D|-0---0---0--0---0---0---------------------|
A|------------------------------------------|
E|------------------------------------------|

 C
E|---0---0------0---0-----------------------|
B|---1---1------1---1-----------------------|
G|---0---0------0---0-----------------------|
D|------------------------------------------|
A|-3---3---3--3---3---3---------------------|
E|------------------------------------------|

 Dm
E|---1---1------0---0-----------------------|
B|---3---3------1---1-----------------------|
G|---2---2------0---0-----------------------|
D|-0---0---0--------------------------------|
A|------------0---0---0---------------------|
E|------------------------------------------|

(segunda parte)

Gm
O meu coração
                 A7
Já estava acostumado
 Gm
Com a solidão
                  A7
Quem diria que a meu lado

(ritmo segunda parte)

 Dm
E|---3---3------3---3-----------------------|
B|---3---3------3---3-----------------------|
G|---3---3------3---3-----------------------|
D|------------------------------------------|
A|------------------------------------------|
E|-3---3---3--3---3---3---------------------|

 A7
E|---0---0------0---0-----------------------|
B|---1---1------1---1-----------------------|
G|---0---0------0---0-----------------------|
D|------------------------------------------|
A|-0---0---0--0---0---0---------------------|
E|------------------------------------------|

(refrão)

             Dm
Você iria ficar
                 Bb/D
Você veio pra ficar
                   C
Você que me faz feliz
                    Dm     A7
Você que me faz cantar, assim...

(segunda parte)

Gm
O meu coração
                 A7
Já estava aposentado
        Gm
Sem nenhuma ilusão
                  A7
Tinha sido maltratado

(refrão)
                 Dm
Tudo se transformou
               Bb/D
Agora você chegou
                   C
Você que me faz feliz
                    Dm     A7
Você que me faz cantar, assim...
          Dm
Na na na na...
                     Bb/D
Na na na na na na na...
                     C
Na na na na na na na...
                     Dm  A7
Na na na na na na na...  eh...

(segunda parte)

Gm
O meu coração
                 A7
Já estava acostumado
 Gm
Com a solidão
                  A7
Quem diria que a meu lado

(refrão)
             Dm
Você iria ficar
                 Bb/D
Você veio pra ficar
                   C
Você que me faz feliz
                    Dm     A7
Você que me faz cantar, assim...

(segunda parte)

Gm
O meu coração
                 A7
Já estava aposentado
        Gm
Sem nenhuma ilusão
                  A7
Tinha sido maltratado

(refrão final)

                 Dm
Tudo se transformou
               Bb/D
Agora você chegou
                   C
Você que me faz feliz
                    Dm     A7
Você que me faz cantar, assim...
          Dm
Na na na na...
                   Bb/D
Na na na na na na na...
                   C
Na na na na na na na...
                   Dm  A7
Na na na na na na na   eh...
       Dm
Ainda bem
Compositor Arnaldo Antunes / Marisa Monte
Colaboración y revision:
  • Leandro Sandim
451 reproducciones
    • ½ Tom
    • A
    • Bb
    • B
    • C
    • Db
    • D
    • Eb
    • E
    • F
    • F#
    • G
    • Ab
  • Adicionar à lista

    0 comentarios

    Mostrar mais comentários
    00:00 / 00:00
    outros vídeos desta música
    repetir qualidade Automático
    Outros vídeos desta música
    00:00 / 00:00
    Automático
    Capítulos
    • Início
    • Acordes da música
    • Tocando a música
    • Tocando Primeira Parte
    • Ensinando ritmo Primeira Parte (Padrão)
    • Tocando Segunda Parte - Final
    • Ensinando ritmo Segunda Parte (Padrão)
    • Encerramento
    OK