Cifra Club

Diariamente

Marisa Monte

Tablatura: Principal (guitarra)
Tom: E
 E5(9)                  E6
Para calar a boca: rícino

Pra lavar a roupa: omo
         E4+(9)       E
Para viagem longa: jato
          E6      E9  A7M           A5(6)  A7M  A7M(9)
Para difíceis contas:     calculadora

E5(9)                           E6
      Para o pneu na lona: jacaré

Para a pantalona: nesga
             E4+(9)     E
Para pular a onda: litoral
        E6         E9   A7M     A5(6)  A7M
Para lápis ter ponta: apontador

                A7M(9)  E5(9)
Para o Pará e o Ama____zonas: látex
            E6
Para parar na Pamplona: Assis
                           E4+(9)
Para trazer à tona: homem-rã
              E      E6   E9  A7M  A5(6)  A7M
Para a melhor azeitona:   I__bé___ria

              A7M(9)  E5(9)
Para o presente da   noiva: marzipã
         E6
Para Adidas: o Conga nacional
                              E4+(9)
Para o outono, a folha: exclusão
           E         E6
Para embaixo da sombra:
     E9    A7M  A5(6)  A7M
Guarda-sol

 A7M(9)  E5(9)
Para    todas as coisas: dicionário
 E6
Para que fiquem prontas: paciência
                   E4+(9)
Para dormir a fronha: madrigal
   E             E6    E9    A7M  A5(6)  A7M
Para brincar na gangorra:   dois

           A7M(9)  E5(9)  E6
Para fazer uma    touca: bobs
                E5(9)  E6(9)
Para beber uma coca: drops
                 E5(9)  E6
Para ferver uma sopa: graus
            E6(9)
Para a luz lá na roça:
            A7M        A5(6)  A7M  A7M(9)
Duzentos e vinte volts

 E5(9)                     E6
Para vigias em ronda: café

Para limpar a lousa: apagador
                 E4+(9)    E
Para o beijo da moça: paladar
              E6       E9  A7M  A5(6)  A7M  A7M(9)
Para uma voz muito rouca: hor__te_____lã

 E5(9)                E6
Para a cor roxa: ataúde

Para a galocha: Verlon
             E4+(9)     E
Para ser mother: melancia
           E6          E9  A7M  A5(6)  A7M
Para abrir a rosa: tempo__rada

              A7M(9)  E5(9)
Para aumentar a   vitrola: sábado
          E6
Para a cama de mola: hóspede
                              E4+(9)
Para trancar bem a porta: cadeado
               E         E6
Para que serve a calota:
    E9  A7M  A5(6)  A7M  A7M(9)
Volks__wagen

       E5(9)
Para quem não acorda: balde
 E6
Para a letra torta: pauta
                        E4+(9)
Para parecer mais nova: Avon
   E                E6
Para os dias de prova:
 E9  A7M  A5(6)  A7M
Am__nésia

               A7M(9)  E5(9)
Para estourar pi______poca: barulho
             E6
Para quem se afoga: isopor
                               E4+(9)
Para levar na escola: condução
          E         E6    E9  A7M  A5(6)  A7M
Para os dias de folga: namo__rado

 A7M(9)  E5(9)
Para o   automóvel que capota: guincho
 E6
Para fechar uma aposta: paraninfo
                    E4+(9)
Para quem se comporta: brinde
     E              E6     E9     A7M  A5(6)  A7M
Para a mulher que aborta: repouso

           A7M(9)  E5(9)
Para saber a res__posta: vide-o-verso
              E6
Para escolher a compota: Jundiaí
                                  E4+(9)
Para a menina que engorda: hipofagin
            E        E6  E9  A7M  A5(6)  A7M  A7M(9)
Para a comida das orcas:   krill

E5(9)                        E6
         Para o telefone que toca

Para a água lá na poça
                     E4+(9)   E
Para a mesa que vai ser posta
           E6       E9  A7M  A5(6)
Para você, o que você  gos__ta:
 A7M   A7M(9)  E5(9)  E6
Dia__ria______men____te

Ritmo Música Completa:

   E5(9)
E|-----------------------------------------|
B|-----5-----5-----5-----5-----------------|
G|-----4-----4-----4-----4-----------------|
D|-----4-----4-----4-----4-----------------|
A|-----------------------------------------|
E|-0-0---0-0---0-0---0-0-------------------|

   E5(9)     E6
E|-----------------------------------------|
B|-----5-----5-----9-----9-----------------|
G|-----4-----6-----6-----6-----------------|
D|-----4-----6-----9-----6-----------------|
A|-----------------------------------------|
E|-0-0---0-0---0-0---0-0-------------------|

   E4+(9)    E     E6    E9
E|-----------------------------------------|
B|-----7-----5-----5-----7-----------------|
G|-----9-----4-----6-----4-----------------|
D|-----8-----6-----6-----6-----------------|
A|-----------------------------------------|
E|-0-0---0-0---0-0---0-0-------------------|

   A7M      A5(6) A7M   A7M(9)
E|-----------------------------------------|
B|-----9-----7-----5-----9-----------------|
G|-----6-----9-----6-----6-----------------|
D|-----7-----7-----6-----9-----------------|
A|-0-0---0-0---0-0---0-0-------------------|
E|-----------------------------------------|

Variação:

  E5(9)  E6  E5(9)  E6(9)
E|-----------------------------------------|
B|--5----5------5----7---------------------|
G|--4----6------4----6---------------------|
D|--4----6------4----6---------------------|
A|-----------------------------------------|
E|--0----0------0----0---------------------|

  E5(9)  E6  E6(9)
E|-----------------------------------------|
B|--5----5-----7---------------------------|
G|--4----6-----6---------------------------|
D|--4----6-----6---------------------------|
A|-----------------------------------------|
E|--0----0-----0---------------------------|
reproducciones 448
Acordes para:
    Composição: Nando Reis Colaboración y revision:
    • Leandro Sandim

    0 comentarios

    mostrar más comentarios

    ¿Conseguiste tocar?

    10 tocaron 1 aún no

    ¡Graba un vídeo tocando Diariamente y envianoslo!

    00:00 / 00:00
    outros vídeos desta música
    repetir qualidade Automático
    Outros vídeos desta música
    00:00 / 00:00
    Automático
    Capítulos
    • Início
    • Tocando a música
    • Acordes da música
    • Tocando Introdução e Primeira Estrofe
    • Ensinando Ritmo da música
    • Tocando Sexta Estrofe
    • Ensinando Variação da Sexta Estrofe
    • Acordes (Versão simplificada)
    • Tocando trecho (Versão simplifcada)
    • Encerramento
    OK