Cifra Club

Daffodils

Mark Ronson

Cifrado: Principal (guitarra y guitarra eléctrica)
Selo Cifra Club: esta cifra foi revisada para atender aos critérios oficiais da nossa Equipe de Qualidade.
tono: C
E|-------------------------------| e|----------------------------------------------|
B|-------------------------------| B|----------------------------------------------|
G|-------------------------------| G|----------------------------------------------|(7th time
D|-------------------------------| x6  D|----------------------------------------------| play)
A|-------------------------------| A|----------------------------------------------|
E|-10-8-10-8-10-10-8~~--13-12-11-| E|-10-8-10-8-10-10-8~~--13-12-11-10----13-12-11-|

[Guitar 2]
E|-10xx10xx10-10-10~~--10xx10xx10-10-10----10xx10xx10-10-10/12----10xx10xx10-10-8~~|
B|-10xx10xx10-10-10~~--10xx10xx10-10-10----10xx10xx10-10-10/12----10xx10xx10-10-8~~|
G|---------------------------------------------------------------------------------|
D|---------------------------------------------------------------------------------|
A|---------------------------------------------------------------------------------|
E|---------------------------------------------------------------------------------|

[VERSE RIFF 2]
[Guitar 1]
   G   Am  F    C    Dm7
E|-3----5--1----8----10---------------|
B|-3----5--1----8----10----10h12-10~--|
G|-4----5--2----9----10----10h12-10~--|
D|-5----7--3----10---10----10h12-10~--|
A|-5----7--3----10---12---------------|
E|-3----5--1----8----10---------------|

[CHORUS/INTERLUDE RIFF]
[Guitar 1]
E|-------------------------------|
B|-------------------------------|
G|-------------------------------|
D|-------------------------------| x8
A|-------------------------------|
E|-8-10-8-10-10-8~~--13-12-11-10-|

[BRIDGE]
[Guitar 2] [3:16]
E|-------|
B|-8p6---|
G|-----7-|
D|-------|
A|-------|
E|-------|

[Guitar 1] [3:42]
   G   Am  F    C
E|-3----5--1----3------------------------------------------------------------|
B|-3----5--1----5------------------------------------------------------------|
G|-4----5--2----5------------------------------------------------------------|
D|-5----7--3----5------------------------------------------------------------| x3
A|-5----7--3----3------------------------------------------------------------|
E|-3----5--1----3----10-8-10-8-10-10-8--13-12-11-10-8-10-8-10-10-8--13-12-11-|

   G   Am  F    C
E|-3----5--1----3----5-|
B|-3----5--1----5----6-|
G|-4----5--2----5----7-|
D|-5----7--3----5----7-| x1
A|-5----7--3----3----5-|
E|-3----5--1----3----5-|

[OUTRO]
[Guitar 1]
E|---------------------------------------------------------------------------------|
B|---------------------------------------------------------------------------------|
G|---------------------------------------------------------------------------------|
D|---------------------------------------------------------------------------------|
A|---------------------------------------------------------------------------------|
E|-10-8-10-8-10-10-8~~--13-12-11-10-8-10-8-10-10-8~~--13-12-11-10-8-10-8-10-10-8~~-|

E|---------------------------------------------------------------x---x--|
B|---------------------------------------------------------------1---5--|
G|---------------------------------------------------------------2---5--|
D|-----------------------------------------------------------/7--3---5--|
A|------------------------------------------------------------x--3---3--|
E|-13-12-11-10-8-10-8-10-10-8~~--13-12-11-10-8-10-8-10-10-8--/5--1---3--|

E|-------------------------------------------------------------3----5--x----x--|
B|-------------------------------------------------------------3----5--1----5--|
G|-------------------------------------------------------------4----5--2----5--|
D|-------------------------------------------------------------5----7--3----5--|
A|-------------------------------------------------------------5----7--3----3--|
E|-10-8-10-8-10-10-8~~--13-12-11-10-8-10-8-10-10-8~~--13-12-11-3----5--1----3--|

E|--------------------------------------------|
B|--------------------------------------------|
G|--------------------------------------------|
D|--------------------------------------------| (Fade Out)
A|--------------------------------------------|
E|-10-8-10-8-10-10-8~~--13-12-11-10-8-10-8-10-|


************************************

| ~  Vibrato
| x  Dead note
| /  Slide up
| h  Hammer-on
| p  Pull-off
Otros videos de esta canción
    43 exhibiciones
      • ½ Tono
      • A
      • Bb
      • B
      • C
      • Db
      • D
      • Eb
      • E
      • F
      • F#
      • G
      • Ab
    • Agregar a la lista

    Afinação da cifra

    Afinador online

      Ops (: Contenido disponible solo en portugués.
      OK