Cifra Club

She Will Be Loved

Maroon 5

Cifrado: Principal (guitarra y guitarra eléctrica)
Já pensou em usar uma coleção de roupas do Cifra Club? Responda as perguntas abaixo e nos ajude nessa missão! →
tono: D
[Intro] Bm  A  Bm  A

    Bm        A
E|-----------------------------------------|
B|---3-3-3-3------2-x-2-----2--------------|
G|---4-4-4-4------2-x-2-2------------------|
D|---4-4-4-4----2---x-2---2----------------|
A|-2----------0-----x-0--------------------|
E|-----------------------------------------|

[Primeira Parte]

    Bm        A
E|-----------------------------------------|
B|---3-3-3-3------2-x-2-----2--------------|
G|---4-4-4-4------2-x-2-2------------------|
D|---4-4-4-4----2---x-2---2----------------|
A|-2----------0-----x-0--------------------|
E|-----------------------------------------|

Bm                 A
   Beauty queen of only eighteen
    Bm                  A
She   had some trouble with herself
Bm                 A
   He was always there to help her
    Bm                    A
She   always belonged to someone else

Bm              A
   I drove for miles and miles
     Bm               A
And wound up at your door
Bm               A
   I've had you so many times but
 Bm             A
Somehow I want more

[Pré-Refrão]

   D5(9)           A5
E|-----x-----0-x-------x-------x-----------|
B|---3-x-----3-x-----2-x-----2-x-----------|
G|---2-x---2---x-----2-x-----2-x-----------|
D|-0---x-0-----x-0---2-x---2---x-----------|
A|-------------x---0---x-0-----x-0---------|
E|-----------------------------------------|

   Bm               A
E|-----------------------------------------|
B|---3-x------3-x-----2-x-----2-x----------|
G|---4-x------4-x-----2-x-----2-x----------|
D|---4-x----4---x-----2-x---2---x----------|
A|-2---x--2-----x-2-0---x-0-----x-0--------|
E|-----------------------------------------|

   D5(9)           A
E|-----x-----0-x-------x-------x-----------|
B|---3-x-----3-x-----2-x-----2-x-----------|
G|---2-x---2---x-----2-x-----2-x-----------|
D|-0---x-0-----x-0---2-x---2---x-----------|
A|-------------x---0---x-0-----x-0---------|
E|-----------------------------------------|

   Bm               G
E|-----------------------------------------|
B|---3-x------3-x-----3--------------------|
G|---4-x------4-x-----0--------------------|
D|---4-x----4---x-----0--------------------|
A|-2---x--2-----x-2------------------------|
E|------------------3----------------------|

D5(9)                       A
      I don't mind spending everyday
Bm                         A
Out on your corner in the pouring rain
D5(9)                              A
      Look for the girl with the broken smile
Bm                           G
   Ask her if she wants to stay awhile

[Refrão]

   D5(9)           A
E|-----x-----0-x-------x-------x-----------|
B|---3-x-----3-x-----2-x-----2-x-----------|
G|---2-x---2---x-----2-x-----2-x-----------|
D|-0---x-0-----x-0---2-x---2---x-----------|
A|-------------x---0---x-0-----x-0---------|
E|-----------------------------------------|

   Bm               G
E|-----------------------------------------|
B|---3-x------3-x-----3--------------------|
G|---4-x------4-x-----0--------------------|
D|---4-x----4---x-----0--------------------|
A|-2---x--2-----x-2------------------------|
E|------------------3----------------------|

         D5(9)   A
And she will be loved
     Bm      G
She will be loved

[Segunda Parte]

Bm                    A
   Tap on my window knock on my door
Bm                       A
I want to make you feel beautiful
Bm                A
I know I tend to get so insecure
Bm                A
It doesn't matter anymore

Bm                  A
   It's not always rainbows and butterflies
          Bm                    A
It's compromise that moves us along
Bm                          A
   My heart is full and my door's always open
         Bm               A
You can come anytime you want

[Pré-Refrão]

D5(9)                         A
      I don't mind spending everyday
Bm                         A
Out on your corner in the pouring rain
D5(9)                              A
      Look for the girl with the broken smile
Bm                           G
   Ask her if she wants to stay awhile

[Refrão]

         D5(9)   A
And she will be loved
     Bm      G
She will be loved

[Terceira Parte]

Bm                   A                  Bm
   I know where you hide alone in your car
                  A                          Bm
Know all of the things that make you who you are
                 A                   Bm
I know that goodbye means nothing at all
                           A
Comes back and begs me to catch her every time
        G
Sheeee... falls

Bm                    A
   Tap on my window knock on my door
Bm                       A
I want to make you feel beautiful

[Pré-Refrão]

D5(9)                         A
      I don't mind spending everyday
Bm                         A
Out on your corner in the pouring rain
D5(9)                              A
      Look for the girl with the broken smile
Bm                           G
   Ask her if she wants to stay awhile

[Refrão]

         D5(9)   A
And she will be loved
     Bm      G
She will be loved
Composición de Adam Levine / James Valentine / Jesse Carmichael / Mickey Madden / Ryan Dusick
84.775 vistas
  • Simplificar cifrado
    • ½ Tono
    • A
    • Bb
    • B
    • C
    • Db
    • D
    • Eb
    • E
    • F
    • F#
    • G
    • Ab
  • Agregar a la lista

    0 comentarios

    Ver todos los comentarios

    ¿Lograste tocar?

    268 Tocaron 12 Aún no

    ¡Graba un video tocando She Will Be Loved y envíanoslo!

    00:00 / 00:00
    Outros vídeos desta música
    Repetir Calidad Automático
    Outros vídeos desta música
    00:00 / 00:00
    Automático
    Capítulos
    • Início
    • Tocando a música
    • Acordes da música
    • Tocando Primeira parte
    • Ensinando ritmo da Primeira Parte
    • Tocando Terceira Parte e Refrão
    • Ensinando ritmo Pré-refrão e Refrão
    • Encerramento
    OK