Cifra Club

Face Down In The Blues

Marshall Tucker Band

Cifrado: Principal (guitarra y guitarra eléctrica)
tono: C
Album: Anthology


Intro:

e------------------------------------|
B------------------------------------|
G------------------------------------|
D-----9-9-7-7---------9-9-7-7--------|  Repeat x 4
A-------------9-9-------------7h8h9--|
E-7-7-------------7-7----------------|

That was just the intro, now here's the rest of the song

e----------------------------------|---------------------------------|
B----------------------------------|---------------------------------|
G----------------------------------|---------------------------------|
D-----9-9-7-7---------9-9-7-7-----7|-----9-9-7-7---------9-9-7-7-----|
A-------------9-9-------------7h9--|-------------9-9-------------9-9-|
E-7-7-------------7-7--------------|-7-7-------------7-7-------------|

e---------------------------------|---------------------------------|
B---------------------------------|---------------------------------|
G-----9-9-7-7---------9-9-7-7-----|---------------------------------|
D-------------9-9-------------9-9-|-----9-9-7-7---------9-9-7-7-----|
A-7-7-------------7-7-------------|-------------9-9-------------9-9-|
E---------------------------------|-7-7-------------7-7-------------|

e-------------------------------------|-----------------------------------|
B-------------------------------------|-----------------------------------|
G-----11-11-9-9-----------9-9-7-7-----|-----------------------------------|
D---------------11-11-------------9-9-|-----9-9-7-7---------9-9-7-7-------|
A-9-9-----------------7-7-------------|-------------9-9-------------7h8h9-|
E-------------------------------------|-7-7-------------7-7---------------|
00:00 / 00:00
Otros videos de esta canción
Repetir
Otros videos de esta canción
Composición de Amyl Justin / Kid Bangham
20 exhibiciones
    • ½ Tono
    • A
    • Bb
    • B
    • C
    • Db
    • D
    • Eb
    • E
    • F
    • F#
    • G
    • Ab
  • Agregar a la lista
    00:00 / 00:00
    OK