Cifra Club

Fire On The Mountain

Marshall Tucker Band

Tab de bajo: Principal
Tabbed By : Ethan
e-mail: *

Tuning:standard
     verse
G|---------------------------------------------------------------------------|
D|---------------------------------------------------------------------------|
A|--------------3--3--3--3---------------------------------------------------|x4
E|--2--2--2--2---------------------------------------------------------------|
    chorus
G|---------------------------------------------------------------------------|
D|---------------------------------------------------------------------------|
A|--------------5--5--5--5--------------3--3--3--3---------------------------|
E|--3--3--3--3--------------5--5--5--5--------------2--2--2--2---------------|
This is my 1st tab so... On the last chorus end on E|--3 instead of E|--2     
00:00 / 00:00
Otros videos de esta canción
Repetir
Otros videos de esta canción
Composición de George McCorkle
16 exhibiciones
00:00 / 00:00
OK