Cifra Club

Animals

Martin Garrix

Cifrado: Principal (guitarra y guitarra eléctrica)
tono: Ab
Intro 2x

E|------------------------------|---------------|-------------------|
B|-------------4----------------|---------------|-------------------|
G|-------3--5-----3--3----------|---------------|-------------------|
D|-6--6-----------------6--5--3-|-5--5--6--6--3-|-5-5-5-5--6--6--3--|
A|------------------------------|---------------|-------------------|
D|------------------------------|---------------|-------------------|



Pre chorus
2x
E|-----------------11-|---------------------|---------------------|
B|---------11--13-----|-11--11--------------|---------------------|
G|-13--13-------------|---------13--12--10--|--12--12--13--13-10--|
D|--------------------|---------------------|---------------------|
A|--------------------|---------------------|---------------------|
D|--------------------|---------------------|---------------------|

E|--------------------------|
B|--------------------------|
G|-12-12-12-12--13--13--10--|
D|--------------------------|
A|--------------------------|
D|--------------------------|

Repetir 6x

E|-------------------------l--------|
B|-------------------------|--------|
G|-------------------------|--------|
D|-------------------------|----3/--|
A|--3--3--3----3--4--3--1--|----3/--|
D|--3--3--3----3--4--3--1--|--------|
--

E|--------------------------------|-----------------------------------|
B|--------------------------------|-----------------------------------|
G|--5-5-5-5--3--3--3--------------|--5-5-5-5--3--3--3--6--5-----------|
D|--------------------6--6--5--5--|----------------------------3------|
A|--------------------------------|-----------------------------------|
D|--------------------------------|-----------------------------------|

E|--------------------------------|--------------------|
B|--------------------------------|--------------------|
G|--5-5-5-5--3--3--3--------------|--5-5-5-5--3--3--3--|
D|--------------------6--6--5--5--|--------------------|
A|--------------------------------|--------------------|
D|--------------------------------|--------------------|

E|--------------------------------|-----------------------------------|
B|--------------------------------|-----------------------------------|
G|--5-5-5-5--3--3--3--------------|--5-5-5-5--3--3--3--6--5-----------|
D|--------------------6--6--5--5--|----------------------------3------|
A|--------------------------------|-----------------------------------|
D|--------------------------------|-----------------------------------|

E|--------------------------------|------------------11---|
B|--------------------------------|----------11--13-------|
G|--5-5-5-5--3--3--3--------------|--13--13---------------|
D|--------------------6--6--5--5--|-----------------------|
A|--------------------------------|-----------------------|
D|--------------------------------|-----------------------|

Pre chorus
2x
E|-----------------11-|---------------------|---------------------|
B|---------11--13-----|-11--11--------------|---------------------|
G|-13--13-------------|---------13--12--10--|--12--12--13--13-10--|
D|--------------------|---------------------|---------------------|
A|--------------------|---------------------|---------------------|
D|--------------------|---------------------|---------------------|

E|--------------------------|
B|--------------------------|
G|-12-12-12-12--13--13--10--|
D|--------------------------|
A|--------------------------|
D|--------------------------|


Repetir 6x

E|-------------------------|--------|
B|-------------------------|--------|
G|-------------------------|--------|
D|-------------------------|----3/--|
A|--3--3--3----3--4--3--1--|----3/--|
D|--3--3--3----3--4--3--1--|--------|
--

E|--------------------------------|-----------------------------------|
B|--------------------------------|-----------------------------------|
G|--5-5-5-5--3--3--3--------------|--5-5-5-5--3--3--3--6--5-----------|
D|--------------------6--6--5--5--|----------------------------3------|
A|--------------------------------|-----------------------------------|
D|--------------------------------|-----------------------------------|

E|--------------------------------|--------------------|
B|--------------------------------|--------------------|
G|--5-5-5-5--3--3--3--------------|--5-5-5-5--3--3--3--|
D|--------------------6--6--5--5--|--------------------|
A|--------------------------------|--------------------|
D|--------------------------------|--------------------|

E|--------------------------------|-----------------------------------|
B|--------------------------------|-----------------------------------|
G|--5-5-5-5--3--3--3--------------|--5-5-5-5--3--3--3--6--5-----------|
D|--------------------6--6--5--5--|----------------------------3------|
A|--------------------------------|-----------------------------------|
D|--------------------------------|-----------------------------------|

E|--------------------------------|------------------11---|
B|--------------------------------|----------11--13-------|
G|--5-5-5-5--3--3--3--------------|--13--13---------------|
D|--------------------6--6--5--5--|-----------------------|
A|--------------------------------|-----------------------|
D|--------------------------------|-----------------------|
00:00 / 00:00
Otros videos de esta canción
Repetir
Otros videos de esta canción
Composición de Martin Garrix
Colaboración y revisión:
  • Alex Luis
  • Iris BM
  • Matheus Mari
5.702 vistas
    • ½ Tono
    • A
    • Bb
    • B
    • C
    • Db
    • D
    • Eb
    • E
    • F
    • F#
    • G
    • Ab
  • Agregar a la lista

    0 comentarios

    Ver todos los comentarios

    ¿Lograste tocar?

    12 Tocaron 0 Aún no

    ¡Graba un video tocando Animals y envíanoslo!

    00:00 / 00:00
    OK