Cifra Club

So Far Away (feat. David Guetta, Jamie Scott & Romy Dya)

Martin Garrix

Cifrado: Principal (guitarra y guitarra eléctrica)
tono: E
[Intro] F#m  A  E  C#m7
        F#m  A  E  C#m7

E|---7--9------------12--12--7---------12---12--7----------------------------|
B|---------7--10--7--------------10------------------10------7h10p7----------|
G|---------------------------------------------------------------------------|
D|---------------------------------------------------------------------------|
A|---------------------------------------------------------------------------|
E|---------------------------------------------------------------------------|
 
E|---7--9------------12--12--7---------12--14--7-----------------------------|
B|---------7--10--7--------------10----------------10------------------------|
G|---------------------------------------------------------------------------|
D|---------------------------------------------------------------------------|
A|---------------------------------------------------------------------------|
E|---------------------------------------------------------------------------|

F#m          A
Light 'em up, light 'em up
                      E               C#m7
Tell me where you are, tell me where you are
    F#m               A
The summer nights, the bright lights
                  E                   C#m7
And the shooting stars, they break my heart
 
                F#m                 A
I'm calling you now, but you're not picking up
                E                      C#m7
Your shadows so close if that's still enough
     F#m            A
Light a match, light a match
                 E               C#m7
Baby, in the dark, show me where you are
 
F#m  A
 Oh,  love
               E                C#m7
How I miss you every single day when I see you on those streets
F#m  A
 Oh,  love
                  E                C#m7
Tell me there's a river I can swim that will bring you back to me
F#m                         A                 E
 'Cause I don't know how to love someone else
                    C#m7             F#m
I don't know how to forget your face
    A
Oh,  love
                E                    C#m7
God, I miss you every single day and now you're so far away
  
( F#m  A  E  C#m7 )
( F#m  A  E  C#m7 )
 
     F#m               A
It's breaking me, I'm losing you
                 E               C#m7
We were far from perfect, but we were worth it
    F#m              A                               E
Too many fights, and we cried, but never said we're sorry
            C#m7
Stop saying you love me 

                  F#m              A
You're calling me now, but I can't pick up
                  E              C#m7
Your shadow's too close, and I'm still in love
             F#m               A                       E
The summer's over now, but somehow, it still breaks my heart
                  C#m7
We could have had the stars, oh
  
F#m  A
 Oh,  love
               E                C#m7
How I miss you every single day when I see you on those streets
F#m  A
 Oh,  love
                  E                C#m7
Tell me there's a river I can swim that will bring you back to me
F#m                         A                 E
 'Cause I don't know how to love someone else
                    C#m7             F#m
I don't know how to forget your face
    A
Oh,  love
                E                    C#m7
God, I miss you every single day and now you're so far away
 
( F#m  A  E  C#m7 )
( F#m  A  E  C#m7 )
( F#m  A  E  C#m7 )
( F#m  A  E  C#m7 )
 
F#m  A
 Oh,  love
               E                C#m7
How I miss you every single day when I see you on those streets
F#m  A
 Oh,  love
                  E                C#m7
Tell me there's a river I can swim that will bring you back to me
F#m                         A                 E
 'Cause I don't know how to love someone else
                    C#m7             F#m
I don't know how to forget your face
    A
Oh,  love
                E                    C#m7                   F#m
God, I miss you every single day and now you're so far away
00:00 / 00:00
Otros videos de esta canción
Repetir
Otros videos de esta canción
Compositor no encontrado.
Colaboración y revisión:
  • Julia Silvestre
218 exhibiciones
    • ½ Tono
    • A
    • Bb
    • B
    • C
    • Db
    • D
    • Eb
    • E
    • F
    • F#
    • G
    • Ab
  • Agregar a la lista
    00:00 / 00:00
    OK