Cifra Club

Fastboat

Marvelous 3

Cifrado: Principal (guitarra y guitarra eléctrica)
Selo Cifra Club: esta cifra foi revisada para atender aos critérios oficiais da nossa Equipe de Qualidade.
tono: C
   Album: hey!Album 
   Transcribed by: Dustin Larrabee 
   Email: * 

   ------------------------------------------------------------------------------ 
   ------------------------------------------------------------------------------ 
   ------------------------------------------------------------------------------ 
   -----------------------------------------------------------5/4/3/2/1---------- 
   -------7/9/10/9/2/5/3---7/9/10/9/2/5/3--7/9/10/9/2/5/3/555-------------------- 
   ------------------------------------------------------------------------------ 
   Riff in chorus and intro 

   ------------------------------------------------------------------------------ 
   ------------------------------------------------------------------------------ 
   ------5555555555-------------555555555----------------777777777--------------- 
   ------5555555555-5555555555--555555555--5555555555----777777777--------------- 
   ------3333333333-5555555555--333333333--5555555555----555555555--------------- 
   -----------------3333333333-------------3333333333---------------------------- 
   Chords under it 

   ------------------------------------------------------------------------------ 
   ------------------------------------------------------------------------------ 
   ---------5-5---3-3------------------------------------------------------------ 
   ---------5-5---3-3--7--7---6--6--5-5--7--------------------------------------- 
   ---------3-3---1-1--7--7---6--6--5-5--7--------------------------------------- 
   --------------------5--5---4--4--3-3--5--------------------------------------- 
   verse 

   ---1--1-1--1-1-1-1-1--1-1-1-1--3-3-1-1---------------------------------------- 
   ---1--1-1--1-1-1-1-1--1-1-1-1--3-3-1-1---------------------------------------- 
   ------------------------------------------------------------------------------ 
   ------------------------------------------------------------------------------ 
   ------------------------------------------------------------------------------ 
   ------------------------------------------------------------------------------ 
   notes hit under it 

   ------------------------------------------------------------------------------ 
   ------------------------------------------------------------------------------ 
   --------------55555555---77777777--9999999999--------------------------------- 
   -----5555555--55555555---77777777--9999999999--------------------------------- 
   -----5555555--33333333---55555555--7777777777--------------------------------- 
   -----3333333------------------------------------------------------------------ 
   pre chorus 

   ------------------------------------------------------------------------------ 
   ------------------------------------------------------------------------------ 
   -------555555555555---------------555555555555------------777777777----------- 
   -------555555555555--5555555555---555555555555-777777777--777777777----------- 
   -------333333333333--5555555555---333333333333-777777777--555555555----------- 
   ---------------------3333333333----------------555555555---------------------- 
   Chorus 

   Then repeat Verse 2x 
   then pre chorus then chorus and at the end of that chorus 
   play thins 




   ------------------------------------------------------------------------------ 
   ------------------------------------------------------------------------------ 
   -----------------444444444--555555555-----------444444444--5555-7777777------- 
   -------7777777---444444444--555555555--77777777-444444444--5555-7777777------- 
   -------7777777---222222222--333333333--77777777-222222222--3333-5555555------- 
   -------5555555-------------------------55555555------------------------------- 
   at the end of 2nd chorus 
Otros videos de esta canción
    16 exhibiciones
      • ½ Tono
      • A
      • Bb
      • B
      • C
      • Db
      • D
      • Eb
      • E
      • F
      • F#
      • G
      • Ab
    • Agregar a la lista

    Afinação da cifra

    Afinador online

      Ops (: Contenido disponible solo en portugués.
      OK