Cifra Club

Love Is All We Need

Mary J. Blige

Cifrado: Principal (guitarra y guitarra eléctrica)
Selo Cifra Club: esta cifra foi revisada para atender aos critérios oficiais da nossa Equipe de Qualidade.
tono: F#m
E|---------------------------------------------------------------------------|
B|----------------------------------5----5---------2--0h2--2-----------------|
G|------1----1-------2----2--------------------------------------------------|
D|---------------------------------------------------------------------------|
A|-------------------------------4----4---------0----------------------------|
E|---0----0-------2----2-----------------------------------------------------|

[Verse]
E|---------------------------------------------------------------------------|
B|----------------------------------6----6---------2--0h2--2-----------------|
G|------1----1-------2----2--------------------------------------------------|
D|---------------------------------------------------------------------------|
A|-------------------------------5----5---------0----------------------------|
E|---0----0-------2----2-----------------------------------------------------|

E|---------------------------------------------------------------------------|
B|-----5----5--------2--0h2--0-----------------------------------------------|
G|--------------------------------------1----1------1----1-------------------|
D|---------------------------------------------------------------------------|
A|---4----4--------0---------------------------------------------------------|
E|-----------------------------------0----0-------0----0---------------------|

E|---------------------------------------------------------------------------|
B|-----5----5--------2--0h2--0-----------------------------------------------|
G|--------------------------------------1----1------1----1-------------------|
D|---------------------------------------------------------------------------|
A|---4----4--------0---------------------------------------------------------|
E|-----------------------------------0----0-------0----0---------------------|

[Chorus - End riff after 'My love is you']
With capo on 3rd
E|---------------------------------------------------------------------------|
B|----9-9-9-9-7-7----7-7-7-7-5--7/9-------9-9-9-9-7-7----7-7-7-7-9-9---------|
G|----9-9-9-9-6-6----6-6-6-6-4--7/9-------9-9-9-9-6-6----6-6-6-6-9-9---------|
D|---------------------------------------------------------------------------|
A|---------------------------------------------------------------------------|
E|---------------------------------------------------------------------------|

[Verse]
E|---------------------------------------------------------------------------|
B|----------------------------------6----6---------2--0h2--2-----------------|
G|------1----1-------2----2--------------------------------------------------|
D|---------------------------------------------------------------------------|
A|-------------------------------5----5---------0----------------------------|
E|---0----0-------2----2-----------------------------------------------------|

E|---------------------------------------------------------------------------|
B|-----5----5--------2--0h2--0-----------------------------------------------|
G|--------------------------------------1----1------1----1-------------------|
D|---------------------------------------------------------------------------|
A|---4----4--------0---------------------------------------------------------|
E|-----------------------------------0----0-------0----0---------------------|

E|---------------------------------------------------------------------------|
B|-----5----5--------2--0h2--0-----------------------------------------------|
G|--------------------------------------1----1------1----1-------------------|
D|---------------------------------------------------------------------------|
A|---4----4--------0---------------------------------------------------------|
E|-----------------------------------0----0-------0----0---------------------|

[Chorus - End riff after 'My love is you']
With capo on 3rd
E|---------------------------------------------------------------------------|
B|----9-9-9-9-7-7----7-7-7-7-5--7/9-------9-9-9-9-7-7----7-7-7-7-9-9---------|
G|----9-9-9-9-6-6----6-6-6-6-4--7/9-------9-9-9-9-6-6----6-6-6-6-9-9---------|
D|---------------------------------------------------------------------------|
A|---------------------------------------------------------------------------|
E|---------------------------------------------------------------------------|
Otros videos de esta canción
    17 exhibiciones
      • ½ Tono
      • Am
      • Bbm
      • Bm
      • Cm
      • C#m
      • Dm
      • Ebm
      • Em
      • Fm
      • F#m
      • Gm
      • G#m
    • Agregar a la lista

    Afinación de cifrado

    Afinador online

      OK