Cifra Club

Mary Jane

Mary J. Blige

Cifrado: Principal (guitarra y guitarra eléctrica)
Selo Cifra Club: esta cifra foi revisada para atender aos critérios oficiais da nossa Equipe de Qualidade.
tono: E

E|---------------------------------------------------------------------------|
B|---------------------------------------------------------------------------|
G|----9-11b------/12-12----/14-12------------/12-12----/14-12----------------|
D|-/11-----9-11---------13--------13-11-9-----------13--------13-11-9/11-----|
A|---------------------------------------------------------------------------|
E|---------------------------------------------------------------------------|

E|-13-12-10------------------------------------------------------------------|
B|----------13-11-10-8----8/10-8/10-8-----10-8-------------------------------|
G|---------------------10-------------10-------10/7--------------------------|
D|---------------------------------------------------------------------------|
A|---------------------------------------------------------------------------|
E|---------------------------------------------------------------------------|
Otros videos de esta canción
    42 exhibiciones
      • ½ Tono
      • A
      • Bb
      • B
      • C
      • Db
      • D
      • Eb
      • E
      • F
      • F#
      • G
      • Ab
    • Agregar a la lista

    Afinación de cifrado

    Afinador online

      OK