Cifra Club

Otra Mañan

Masappan

Cifrado: Principal (guitarra y guitarra eléctrica)
tono: C
(intro guitarra 1) D#5  G5  G#5  A#5  B5

(intro guitarra 2)
E|------------------------------------------------------------------------|
B|------------------------------------------------------------------------|
G|------------------------------------------------------------------------|
D|-8---------------------------------8------------------------------------|
A|---10-8-6-8-6-8-6-8-6-8-6-8-10-(x3)--10-8-6-8-6-8-10-11-11-11-11-11-10-8|
E|---------------------------------------------------------------------- x2

(verso 1)
D#5                 G5                               G#5
  Otra mañana esperaré, para que el solo brille otra vez
                     A#5               B5
No sé cuando podre decir: que el sentimiento lo perdí.
D#5                      G5                        G#5
   Y ya no sé si estaré bien sin poder sentir tu calor
                   A#5          B5
Esto no se a donde va, no tiene rumbo ni lugar…

(refrão)
D#5         G#5
Siempre estarás
       C5        A#5
Dentro de mi corazón
     D#5          G#5
Limpiare tus lágrimas,
        C5          A#5
Las que causan mi dolor

OOH OOH OH OH

(guitarra 1) D#5 G5 G#5  A#5 B5

(guitarra 2)
E|------------------------------------------------------------------------|
B|------------------------------------------------------------------------|
G|------------------------------------------------------------------------|
D|-8---------------------------------8------------------------------------|
A|---10-8-6-8-6-8-6-8-6-8-6-8-10-(x3)--10-8-6-8-6-8-10-11-11-11-11-11-10-8|
E|------------------------------------------------------------------------|

(verso 2)
D#5                   G5                        G#5
   Te tengo que agradecer, de los momentos del ayer,
                 A#5      B5          D#5
Pues algo que nunca jamás volveré a tener,
                        G5                    G#5
 Lo siento tengo que seguir mi vida debe continuar
                     A#           B5
Ya sea contigo o sin ti, esto tendrá que terminar

(ponte)
D#        A#    G#        A# D#   A#  G#  A#
Vez que   no    soy   perfec-to para  ti
D#5  G5           C5   D#5   G#5    G5
        Ho ho hooo
D#5  G5           C5   D#5   G#5    G5
        Ho ho hooo

(refrão)
D#5         G#5
Siempre estarás
       C5        A#5
Dentro de mi corazón
     D#5          G#5
Limpiare tus lágrimas,
        C5          A#5
Las que causan mi dolor
Intro otra vez
D#5         G#5
Siempre estarás
       C5        A#5
Dentro de mi corazón
     D#5          G#5
Limpiare tus lágrimas,
        C5          A#5
Las que causan mi dolor…

(final guitarra 1)
E|------------------------------------|
B|------------------------------------|
G|------------------------------------|
D|-8---------------------------8------|
A|---10-8-6-8-6-(x13)-10-10-10-6------|
E|------------------------------------|
Compositor não encontrado.
Colaboración y revisión:
  • leonardo aguilar
75 vistas
    • ½ Tono
    • A
    • Bb
    • B
    • C
    • Db
    • D
    • Eb
    • E
    • F
    • F#
    • G
    • Ab
  • Agregar a la lista

    0 comentarios

    Ver todos los comentarios

    ¿Lograste tocar?

    0 Tocaron 0 Aún no

    ¡Graba un video tocando Otra Mañan y envíanoslo!

    00:00 / 00:00
    Outros vídeos desta música
    Repetir Calidad Automático
    Outros vídeos desta música
    00:00 / 00:00
    Automático
    OK