Cifra Club

Para Ti

Masappan

Cifrado: Principal (guitarra y guitarra eléctrica)
tono: F#
Q onda… ps como vi que nadie se lanzaba a hacer la tab
de la cancion ps la tuve que hacer yo... siendo esta
mi primera Tab... quiero dedicársela a mi novia Abril…
que la quiero un buen... waaa t adoro!!!! Y a mis friends
q les late el happy punk mexicano... solo s la primera
guitarra... la segunda se las debo chavos...


Empieza tocando esto: (Encuéntrenle ritmo… la nta me dio
weba ponerlo todo… pero se entiende)

E) ------------------------------------------|
B) ------------------------------------------|
C) ------------------------------------------|     2 veces
D) ----4---------6---------2---------2-------|
A) ----4---------6---------2---------4-------|
E) ----2---------4---------0---------4-------|

Termina con esto: (Déjenlo al aire)

E) -------------|
B) -------------|
C) ----4--------|
D) ----4--------|
A) ----2--------|
E) -------------|


Todo el verso es lo primero que puse

E) ------------------------------------------|
B) ------------------------------------------|
C) ----4-------------------------------------|     2 veces
D) ----4---------6---------2---------2-------|
A) ----2---------6---------2---------4-------|
E) --------------4---------0---------4-------|

Me botaste….


Pre-verso:

E) ----------------------------------------------|
B) ----------------------------------------------|
C) ----------------------------------------------|
D) ----2--------4-----------2-----------6-2--6-4-|
A) ----2--------4-----------2-----------6-2--6-4-|
E) ----0--------2-----------0-----------4-0--4-2-|

Eras tan fresa….Y no podias…Con alguien…Yo….


Coro:

E) ------------------------------------------|
B) ------------------------------------------|
C) ----4-------------------------------------|   2 veces
D) ----4----------4----------6----------2----|
A) ----2----------4----------6----------2----|
E) ---------------2----------4----------0----|

Y ahora regreso…  No soy..   Escuchas.. Te acuerdas...

Después del coro va esto:

E) ------------------------------------------|
B) ------------------------------------------|
C) --4---6---8---9----------4---6---9---8----|
D) --4---6---8---9----------4---6---9---8----|
A) --2---4---6---7----------2---4---7---6----|
E) ------------------------------------------|

E) ------------------------------------------|
B) ------------------------------------------|
C) --4---6---8---9---11-------4--------------|
D) --4---6---8---7---9--------4--------------|
A) --2---4---6---7---9--------2--------------|
E) ------------------------------------------|


Y eso es básicamente todo... en fin.. termina con esto...

E) -------------|
B) -------------|
C) ----4--------|
D) ----4--------|
A) ----2--------|
E) -------------|


La nta me dio weba sacar la egunda guitarra...
pero ps como habian pedido la rola ps aqui está...
la segunda guitarra se deriv de la primera por lo
que he escuchado... en fin... spero les sirva... Salu2!!!
Composición de Pppez / Roberto
31 vistas
    • ½ Tono
    • A
    • Bb
    • B
    • C
    • Db
    • D
    • Eb
    • E
    • F
    • F#
    • G
    • Ab
  • Agregar a la lista

    0 comentarios

    Ver todos los comentarios

    ¿Lograste tocar?

    0 Tocaron 0 Aún no

    ¡Graba un video tocando Para Ti y envíanoslo!

    00:00 / 00:00
    Outros vídeos desta música
    Repetir Calidad Automático
    Outros vídeos desta música
    00:00 / 00:00
    Automático
    OK